Acordes de Guitarra » M »Música de TV » Saint seiya - pegasus fantasy (Tab)

Saint seiya - pegasus fantasy
Música de TV

Letras, Acordes y Tabs para Guitarra, Bajo y Ukulele

  • Cm - G#  x2
    
    
    VERSO)
                  Cm
    Siempre la verdad
              Gm
    vencerá a todo el mal
         G#         A#         D#         G
    y si tú quieres ser, un guerrero vencerás
                  Cm                 Gm
    con todo el poder, llegaras hasta el final
           G#               A#             Cm
    si los sueños se van el cosmos te enviara
    
    
    PRECORO)
    G#        A#
     ¡Pegasus fantasy!
    D#    A#   Cm
    
  • esta rola la conosco como SAd Brothers  XD se toca lenta pero es
    el opening del anime....
    pueden chekar como se toca en este video
    
    http://mx.youtube.com/watch?v=XW1xWdD0a5g
    
    
    
    e|--------0--------------0---------------------------|
    B|--0-1-3----0-1p0---------3-3-1-1h3-1-0----0-----0-0|
    G|-2--------2-----2-----2-2---------------0-----0--2-|
    D|---------2-------2---2-------------------2---2-2---|
    A|--------0-----------0----------2-------2----2------|
    E|---------------------------------------------------|
    
    
    e|------------------0--0---0-2s4----4-------|
    B|-1--1-0---3---1-3------3---------3--------|
    G|---2---2----0-------0-0---------4---------|
    D|--2--------0-0----------------------------|
    A|------------------3-----------------------|
    E|-1--------3--------------------0----------|
    
    
    e|--------0----------------0---------------------------|
    B|--0-1-3------0-1p0---------3-3-1-1h3-1-0----0-----0-0|
    G|-2----------2-----2-----2-2---------------0-----0--2-|
    D|---------0h2-------2---2----------------
  • Este es el tema de los caballeros del zodiaco del intro de la serie
    normal, esa cuando tienen las armaduras pencas con casco...
    
    
    
    Este intro lo saco tambien una octava mas baja y suena bn igual
    
    E|-------------------------------------------------------------|
    B|-------------------------------------------------------------|
    G|-------------------------------------------------------------|
    D|-----5--3----------------------------------5--3------6~~-----| x2
    A|3--6------5-------3--6--5------------3--6-------5------------|
    E|-------------6--4---------6--4--------------------6----------|
    
    
    Esta es la melodia :)
    |--------1--3---3-1-1---1-------------------1----1-3-3---3-6-7--|
    |-1-3-4---------------4---4-3---1-3-4---3-4----4----------------|
    |---------------------------------------------------------------|
    |---------------------------------------------------------------|
    |---------------------------------------------------------------|
    |--------------------------------------------------------
  • +
    ¡Colabora con nosotros!
    Envíanos tu versión de esta canción

Letra de Saint seiya - pegasus fantasy
VERSO)
Siempre la verdad
vencerá a todo el mal
y si tú quieres ser, un guerrero vencerás
con todo el poder, llegaras hasta el final
si los sueños se van el cosmos te enviara
PRECORO)
¡Pegasus fantasy!
luz y libertad
por que son tus poderes
como el corazón nadie te dañará
¡Saint seiya! jóvenes guerreros
¡Saint seiya! siempre lucharáaaan
¡Saint seiya! unidos por su fuerzaaaa
¡Saint seiya! y ¡Pegusus!
¡Hasta el final!
VERSO)
Con la conviccion
Aun de lo que no se ve
Con la fe, la certeza, lo que esperas, llegara
En la eternidad
Hay un lugar para ti
Si tu crees en verdad, su luz te hara vivir
PRECORO)
¡Pegasus fantasy!
luz y libertad
por que son tus poderes
como el corazón nadie te dañará
¡Saint seiya! jóvenes guerreros
¡Saint seiya! siempre brillaraaaan
¡Saint seiya! unidos por su fuerzaaaa
¡Saint seiya! y ¡Pegusus!
¡Hasta el final!
(Acordes Solo)
PRECORO)
¡Pegasus fantasy!
luz y libertad
por que son tus poderes
como el corazón nadie te dañará ouh ooh ooh
¡Saint seiya! jóvenes guerreros
¡Saint seiya! siempre brillaraaaan
¡Saint seiya! unidos por su fuerzaaaa
¡Saint seiya! y ¡Pegusus!
¡Hasta el final!
FINAL)




[Saint seiya - pegasus fantasy chords][Saint seiya - pegasus fantasy cifra]
© LaCuerda.net · aviso legal · privacidad · es · en · pt · contacto