Acordes de Guitarra » M »Música de TV » Dragon Ball GT - mi corazón encantado (Tab)

Dragon Ball GT - mi corazón encantado
Música de TV

Letras, Acordes y Tabs para Guitarra, Bajo y Ukulele

  • C                 G
     Tu sonrisa tan resplandeciente
     Am              Em
     A mi corazón deja encantado
     F             C
     Ven toma mi mano
        A#               G            G#-A#-C
     Para huir de esta terrible oscuridad.
    
    
     Fm                    A#            Gm
     En el instante en que te volví a encontrar
                      Cm                Fm
     Mi mente trajo a mí aquel hermoso lugar
                    Gm             Cm         C7
     Que cuando era niño fue tan valioso para mi.
    
              G#                 A#              Gm
     Quiero saber si acaso tú conmigo quieres bailar
                  Cm           Fm
    
  • C                 G
     Tu sonrisa tan resplandeciente
     Am              Em     E7
     A mi corazón deja encantado
     F           C Am
     Ven toma mi mano
        A#               G            G#-A#-C
     Para huir de esta terrible oscuridad.
    
    
     Fm                    A#            Gm
     En el instante en que te volví a encontrar
                      Cm                Fm
     Mi mente trajo a mí aquel hermoso lugar
                    G7             Cm         C7
     Que cuando era niño fue tan valioso para mi.
    
              G#                 A#              Gm
     Quiero saber si acaso tú conmigo quieres bailar
                  Cm           Fm
    
  • AQUI ESTA LA TAB DE DRGON BALL GT ESTE
    ES EL PEDAZO Q VA DESPUES DE LA CANCION DEL COMIENZO
    
    e|--3—3—0—1—3---5—3—1---0------0—0---------0--1--0----------------|
    B|--------------------------3---------1--3---------3--1--0--------|
    G|------------------------------------------------------------2--2|
    D|----------------------------------------------------------------|
    A|----------------------------------------------------------------|
    E|----------------------------------------------------------------|
    
    e|----------5-h—3—--3------------------------------------------------|
    B|----------------------3----3----5--—6---5---3----1---5---6-p-5---3-|
    G|-2—2--5------------------------------------------------------------|
    D|-------------------------------------------------------------------|
    A|-------------------------------------------------------------------|
    E|-------------------------------------------------------------------|
    
    e|--3—3—0—1—3---5—3—1---0------0—0---------0--1--0---
  • qonda.... no pues esta es mi primera transcripcion
    aqui y poes no me tomo mucho sacarla....
    no es tan complicado pero necesitas conocer los ritmos
    de la cancion para sacarla con mayor facilidad, no esta completa
    pero aki pongo lo que saque.......
    UN SALUDO ALA PREPA JOSE VASCONCELOS
    a oscar(bambam),set(cohen),lola,andres(wiki), Fraile, Lina, Miranda
    Sofia (golosa),ivonne,etc....
    
    
    Intro:
    
    e|---—-—-—-—-----—-—------------—---------------------------------|
    B|-----------------10---------------------------------------------|
    G|--12-12---9-10-12---12-10-9-------9-9-------9-10-9--------------|
    D|----------------------------12--------10-12--------12-10-9------|
    A|----------------------------------------------------------------|
    E|----------------------------------------------------------------|
    
    -(En este los ultimos tres "10,9 y 12" se tocan rapido)
    e|---—-—-—-—-----—-—------------—---------------------------------|
    B|---------10-8----------------------------------------------
  •      C              G        Am           Em
    e|----------------5---------|--------------------|
    B|---5/8-8--5-6-8---8-6-5---|-5-5-----5-6-5------|
    G|------------------------7-|----5-7-------7-5-4-|
    D|--------------------------|--------------------|
    A|--------------------------|--------------------|
    E|--------------------------|--------------------|
    
      F          C-Am  A#  G
    e|-----5----------------------------
    B|-------8-8------5-6-5-------------
    G|---5-------5--7-------7-5-7-5-4-5-
    D|-7--------------------------------
    A|----------------------------------
    E|----------------------------------
    
                    G#-A#-C
    e|--------------------------------|---------------|
    B|--------------------------------|-1-0-----------|
    G|---1-0---------3-1-0------0-----|-----2-0-------|
    
  • e--0-0-----0-1-0-------     e---------------------
    B------1-3-------3-1-0-     B--1-1---0-1-3-1-0----
    G----------------------     G------2-----------2-0
    D----------------------     D---------------------
    
    FRASE 3:              FRASE 4:
    e--------1-0----       e----0-1-0----------------
    B----0-1------1        B--3-------3-1-3--1-1-0-1-
    G--2------------       G-------------------------
    D---------------       D-------------------------
    
    
    PUENTE QUE UNE ESTRIBILLOS CON ESTROFA 1:
    
    e----4-3------------6-4-3---------
    B--1-----6-4-3-4--3-------6-4-6-5-
    G---------------------------------
    D---------------------------------
    
    
    
  • MI CORAZÓN ENCANTADO
    
    INTRO
    
    G|---------------------------------|-----0-------0-------0-------0---|
    D|---------------------------------|---------3-------2-------0-------|
    A|---------------------------------|---------------------------------|
    E|---------------------------------|---------------------------------|
    
    CHORUS
    
    G|---------------------------------|---------------------------------|
    D|---------------------------------|---------------------------------|
    A|-3---3---3---3---3---3---3---3---|-2---2---2---2---2---2---2---2---|
    E|---------------------------------|---------------------------------|
    
    G|---------------------------------|---------------------------------|
    D|---------------------------------|---------------------------------|
    A|-0---0---0---0---0---0---0---0---|---------------------------------|
    E|---------------------------------|-0---0---0---0---0---0---0---0---|
    
    G|---------------------------------|---------------------------------|
    D|---------------------------------|
  •                      INTRO
    
         G G E F G A G F E D E E C D E F E D C B A
         A C A G C D E F E D C D C B C
    
                       INTERMEDIO
    
          (Cx5) A# G# A# C A#
          (A#x5) G# G G# A# G#
          G# G# G# G F G F F D# F G G
    
          G G# F# C (Cx5)A# G# A# C A#
          A# A# C D D D D# A# G# G G#
    
          G# A# G# G G G
         (sig octava)G# F F E F G G
    
          G# A# C C A# C C A# C
          A# D C A# G# G
    
          G# A# C D D C (Dx4)(Ex3)D E F#
    
                       FIN
    
          G G E F G A G F E D E E C D E F E D C B A
          A C A G C D E F E D C D E F D
    
          G G E F G A G F E D E E C D E F E D C B A
          A C A G C D E F E D C D C B C
  • +
    ¡Colabora con nosotros!
    Envíanos tu versión de esta canción
  • Tutorial
    HD
    MI CORAZÓN ENCANTADO ¿CÓMO TOCAR?
    ¿Cómo tocar ...? #2
    8:53
  • Tutorial
    HD
    Como tocar "Mi Corazón Encantado" de Dragon Ball GT - Tutorial Guitarra COMPLETO (HD)
    18:29
  • Tutorial
    HD
    Como tocar MI CORAZÓN ENCANTADO en guitarra - Dragon Ball GT [Tutorial Somos Posers]
    8:51

Letra de Dragon Ball GT - mi corazón encantado
Tu sonrisa tan resplandeciente
A mi corazón deja encantado
Ven toma mi mano
Para huir de esta terrible oscuridad.
En el instante en que te volví a encontrar
Mi mente trajo a mí aquel hermoso lugar
Que cuando era niño fue tan valioso para mi.
Quiero saber si acaso tú conmigo quieres bailar
Si me das tu mano te llevare
Por un camino cubierto de luz y oscuridad,
Tal vez sigues pensando en el no puedo yo saberlo
Pero se que entiendo que amor necesitas tu
Y el valor para pelear, en mi lo hallaras.
Mi corazón encantado vibra
Por el polvo de esperanza y magia
Del universo que ambicionan todos poseer.
Voy a amarte para toda la vida
No me importa si aun no te intereso
Ven toma mi mano para huir de esta infinita oscuridad.




[Dragon Ball GT - mi corazón encantado chords][Dragon Ball GT - mi corazón encantado cifra]
© LaCuerda.net · aviso legal · privacidad · es · en · pt · contacto