Acordes de Guitarra » M »Música de TV » Pantera Rosa (Tab)

Pantera Rosa
Música de TV

Letras, Acordes y Tabs para Guitarra, Bajo y Ukulele

  • 1----------------------------------------------
    2----------------------------------------------
    3----------------------------------------------
    4------------1/2-------------1/2-----2/1-------
    5------4/5--------4/5-----------------------5/4
    6----------------------------------------------
    
    
    1----------------------------------------------------------------
    2----------------------------------------------------------------
    3-------------------------------------5/4--------4/2-----2/0-----
    4------1/2----4/5-----1/2-------4/5--------2/5--------------2/0/2
    5--4/5-----------------------------------------------------------
    6----------------------------------------------------------------
    
    1--------------------------------------------------------
    2-----------------------------------------------------5/4
    3----------------------------------------5/4-----4-------
    4--------1/2-----4/5-----1/2-------4/5---------5---------
    5--4/5---------------------------------------------------
    6----------------------
  • E|---------------
    B|---------------
    G|---------------
    D|---------------       DEJAR SONAR 3 TIEMPOS
    A|--4/5--6/7-----      (En estos tiempos puedes golpear la guitarra
    E|--------------- X 2   para marcar los tiempos o chasquiar los dedos)
    
    
    E|--------------------------------|-----------
    B|--------------------------------|-----------
    G|----------------------------5/4-|------4/3--
    D|------------4/5--------4/5------|-2/5-------
    A|--4/5--6/7-------6/7------------|-----------
    E|--------------------------------|-----------
    
    
    E|---------------------
    B|---------------------
    G|---------------------
    D|---7----5/7-5-------- SE TOCA RAPIDO
    A|--------------7-5/7--
    E|---------------------
    
    
    E|--10/12--10-------------------------------------------------------
    B|--------------12--10--------9/10-9/10--9/10--9/10--8--------------
    G|----------------------12--9---------------------------9--7/9--7/9-
    D|------------------------------------------------------------------
    A|------------------------------------
  • e||---------------------|--------------------|--------------------|
    B||---------------------|--------------------|--------------------|
    G||·--------------------|--------------------|-----------------0--|
    D||·-----0--1--2--------|-----0--1--2--------|-----0--1--2--4-----|
    A||---4-----------2-----|--4-----------2-----|--4-----------------|
    E||------------------0--|-----------------0--|--------------------|
    
    e||---------------------|--------------|------------------|
    B||---------------1--0--|--------------|------------------|
    G||------------0--------|-----0--4--3--|--2--0------------|
    D||---1--2--4-----------|--2-----------|--------2--0--2---|
    A||---------------------|--------------|------------------|
    E||---------------------|--------------|------------------|
    
    e||---------------------|--------------------|--------0-----------|
    B||---------------------|--------------1--0--|-----0-----4--5-----|
    G||------------------0--|-----------0--------|--0-----------------|
    D||------0--1--2--4-----
  • Intro
    
    G|---------------------|
    D|---------------------|
    A|-4h5-6h7-------------|
    E|-----------7--0------|
    
    G|---------------------|
    D|---------------------|
    A|-7h6-5h4-------------|
    E|-----------4--0------|(x2)
    
    primera parte
    
    G|----------------------5-4-----------------|
    D|---------4-5------4-5-------5-9-8-5-------|
    A|-4-5-6-7-----6-7----------7---------7-5-7-|
    E|------------------------------------------|
    
    segunda parte
    
    G|---------------------5-4-----7-5--------|
    D|---------4-5-----4-5-------5------------|
    A|-4-5-6-7-----6-7---------7--------------|
    E|----------------------------------------|
    
    se repite la primera parte
    
    
    el final
    G|---------9-7--------------------------------------|
    D|-------------9-7-5-7h8-7h8-7h8-5------------------|
    A|-4-5-6-7-------------------------7-5-7------------|
    E|---------------------------------------7-0--------|
  • Intro
    
    G|---------------------|
    D|---------------------|
    A|-4h5-6h7-------------|
    E|-----------7--0------|x4
    
    primera parte
    
    G|----------------------5-4-----------------|
    D|---------4-5------4-5-------5-9-8-5-------|
    A|-4-5-6-7-----6-7----------7---------7-5-7-|
    E|------------------------------------------|
    
    segunda parte
    
    G|---------------------5-4-----7-5--------|
    D|---------4-5-----4-5-------5------------|
    A|-4-5-6-7-----6-7---------7--------------|
    E|----------------------------------------|
    
    se repite la primera parte
    
    
    el final
    G|---------9-7--------------------------------------|
    D|-------------9-7-5-7h8-7h8-7h8-5------------------|
    A|-4-5-6-7-------------------------7-5-7------------|
    E|---------------------------------------7-0--------|
  • +
    ¡Colabora con nosotros!
    Envíanos tu versión de esta canción
  • Tutorial
    HD
    La pantera rosa,Cover en Guitarra acustica.
    1:03






[Pantera Rosa chords][Pantera Rosa cifra]
© LaCuerda.net · aviso legal · privacidad · es · en · pt · contacto