Acordes de Guitarra » M »Maná » Justicia, Tierra y Libertad (Tab)

Justicia, Tierra y Libertad
Maná

Letras, Notas, Punteos, Tablaturas y Acordes de Guitarra (Tabs & Chords)

  • Letra y Acordes
      Am
    Justicia, tierra y libertad
       Am              F      G
    oye tu mi canto, oyelo, oyelo
    oye tu mi llanto, oyelo, oyelo
    
    Am - F - G
    
    Am             F       G            Am   F  G
    Hermanos y hermanas de otras razas
    Am            F         G           Am   F  G
    de otro color y un mismo corazon  
    Am              F          G        Am   F  G
    rezas y rezas, y nada enderezas
    Am              F      G        Am   F  G
    por eso hagamos la revolución de amor oye
    
    Estamos exigiendo todo el respeto
    respeto al indio y a su dignidad
    ya lo dijo Villa, dijo Zapata
    
  • Letra y Acordes
    e------------------0-0-!
    b-----0-1-0-1-3-1-3----!
    g----2-----------------!
    d----------------------!
    a--0/------------------!
    
      Justicia Tierra y Libertad
    
    e-0-6-1-0-0-1-0-0-1-3-----------------!
    b---------------------3-3-------------!
    g------------------------5-5--4-5-4-2-!
    
    
      Am
    Justicia, tierra y libertad
       Am              F      G
    oye tu mi canto, oyelo, oyelo
    oye tu mi llanto, oyelo, oyelo
    
    Am - F - G
    
  • Tablatura
    (A)  G|-----5-4-5--7--5-7---------|
         D|---7-----------------------|
         A|---------------------------|
         E|---------------------------|
    
    
         E|-------5------------------------------------|
         B|---5-5---5-5-5---5--------------------------|
    (B)  G|---------------7---7--7-5--4-5-4--7-5-4-----|
         D|----------------------------------------7---|
         A|--------------------------------------------|
         E|--------------------------------------------|
    
    
    En la introducción se toca (I) sin los acordes, sólo con (A) y (B).
    
         _
        |  (A) Am          F       G    Am     F  G
    (I)_|      Justicia, tierra y libertad
        |  (B) Am          F       G    Am     F  G
    
  • Tablatura
       Am             F               G
    |-5-----|     |-------|     |-------------|
    |---5---|     |-6-----|     |-8-------8---|
    |-----5-| x 4 |---5---| x 2 |---7---7---7-| 
    |-------|     |-----7-|     |-----9-------| __________________
    |-------|     |-------|     |-------------|                   |
    |-------|     |-------|     |-------------|                   |
                                                                  |  
      Am                F            G                            |
    |-5-----5-----7---8-----------------------------|             |
    |---5-----5-----5----5--6-----6-----8-------8---|             |
    |-----5-----5-------------5-----5-----7---7---7-|             | 
    |---------------------------7-----7-----9-------| ____________|
    |-----------------------------------------------|
    |-----------------------------------------------| esto se repite en toda la canción
    
    Intro (se toca con una guitarra electro-acústica)
    
      Am                                                                         
    |-----------------------|           |-----7---------------------------------|
    
  • Tab p/Bajo
    Intro
    G|---------------------------|
    D|---------------------------|
    A|-------3--------0-3----2-5-| x4
    E|-5-555---5--0-1------3-----|
    
    Verso
    G|---------------------|---------------------|
    D|---------------------|---------------------|
    A|------3--------0-----|------3--------0---2-| x4
    E|-5-55---5--0-1---3/0-|-5-55---5--0-1---3---|
    
    [Intro] x2
    [Verso] x5
    
    Coro
    G|----------------------------|
    D|----------------------------|
    A|---3-5----3-0----0-3----2-5-| x16
    E|-5------5------1------3-----|
    
    Puente
    G|----------------|-------------------|
    D|----------------|-------------------|
    A|---2-2-22-------|-----3-5-3---------|
    E|-5--------3-5/1-|-3-5-------1-1-3/1-|
    
    [Coro] hasta acabar la cancion
  • +
    ¡Colabora con nosotros!
    Envíanos tu versión de esta canción

Letra de Justicia, Tierra y Libertad
Justicia, tierra y libertad
oye tu mi canto, oyelo, oyelo
oye tu mi llanto, oyelo, oyelo
Hermanos y hermanas de otras razas
de otro color y un mismo corazon
rezas y rezas, y nada enderezas
por eso hagamos la revolución de amor oye
Estamos exigiendo todo el respeto
respeto al indio y a su dignidad
ya lo dijo Villa, dijo Zapata
Justicia, Tierra y Libertad
Oye tu mi canto....
¿como tendriamos libertad? ¿como tendriamos dignidad?
como desearía yo, como desearía el amor
¿Cuando tendremos la democracia?, cuando tumbemos la burocracia
¿cuanto desearía yo?, menos demencia y mas amor
Amor, dolor , amor, oye tu mi canto
Justicia tierra y libertad....
Este es el punteo que se mantiene en casi toda la canción
El punteo de la guitarra electrica no lo coloco
porque me faltan unas partes por sacar bien



© LaCuerda.net · Aviso Legal · Privacidad