Acordes de Guitarra » M »Mago De Oz » Cadavería (Tab)

Cadavería
Mago De Oz

Letras, Notas, Punteos, Tablaturas y Acordes de Guitarra (Tabs & Chords)

  • Letra y Acordes
    A  A  A  A  D  D  D  D  Bm  Bm  A  A
    
    VERSO:
    A
    Soy la voz
          A
    del miedo y del adios
               Bm
    yo soy principio y fin
              Bm
    soy frio y calor
                D                   A
    yo soy el principe de toda soledad
    
    A
    Sigueme
                 A
    no hay nada q perder
                Bm
    si quieres ser feliz
    
  • Tablatura
    e ----------17---16---14----------------------------------------------------
    B ----------------------------17----14--------12-----14----15---------------
    G --------------------------------------------------------------------------
    D --------------------------------------------------------------------------
    A --------------------------------------------------------------------------
    E --------------------------------------------------------------------------
    
    e ---------17---16---14-----------------------------------------------------
    B ----------------------------17----14----------12--------------------------
    G -------------------------------------------------13-----------------------
    D ------------------------------------------------------14-----16-----------
    A --------------------------------------------------------------------------
    E --------------------------------------------------------------------------
    
    Violin - Dos veces
    
    e --9---------------10------------------12---------------14----12----10-----
    B -----10--10-----------10----10-----------10---10--------------------------
    G --------------------------------------------------------------------------
    D --------------------------------------------------------------------------
    
  • Tablatura
    E------------------------------
    B------------------------------
    G-14---------------------------
    D---16-14------------14--------
    A---------16-16-14-16---16-----
    E------------------------------
    
    
    E------------------------------
    B------------------------------
    G-14---------------------------
    D---16-14----------------------
    A---------16-16-14-------------
    E------------------16-14-12----
    
    
    E-------------------------------------------------------
    B-----------------------------------------------10-11b--
    G-14---------------------------14-12-10-9-10-12---------
    D---16-14------------14-----16--------------------------
    
  • +
    ¡Colabora con nosotros!
    Envíanos tu versión de esta canción

Letra de Cadavería
VERSO:
Soy la voz
del miedo y del adios
yo soy principio y fin
soy frio y calor
yo soy el principe de toda soledad
Sigueme
no hay nada q perder
si quieres ser feliz
podemos construir
algunos puentes magicos
a otro lugar
PRE-CORO:
Yo soy el miedo a envejecer
soy partida de ajedrez
que tu alma juega por
ser inmortal
ven a mi
el cielo te puede esperar
rezame
y no moriras
el dolor
de perder lo q se amo
se escurrira
si te entregas al fin..
INSTRUMENTAL:
VERSO:
soy la paz
soy guerra y al final
soy lo q pienses tu
amor llanto y dolor
soy la manzana envenenada del eden
Entra en mi
te llevare a un lugar
donde se esconde el mal
donde las lagrimas
son prisioneras y su
carcel es el mar
PRE-CORO:
La vida es solo una ilusion
un espejismo de dolor
que mi sueño eterno
hara cicatrizar
ven a mi
el cielo te puede esperar
rezame
y no moriras
el dolor
de perder lo q se amo
se escurrira
si te entregas al fin..
BRIDGE:
Ven recuestate en mi
y el dolor se dormira
entregame tu alma
ven y ahogate en mi
te llenare de ausencias
los recuerdos del ayer
para asesinar nostalgias de tu ser
VERSO: (SOLO VOZ Y BATERIA) Sin embargo los acordes:
( )--] No se toca el acorde en la cancion original
yo te doy
te libro desde hoy
de todo tu pecar
invocame ….
la santa muerte soy!
ven a mi
el cielo te puede esperar
rezame
y no moriras
el dolor
de perder lo q se amo
se escurrira
si te entregas al fin..
ven a mi
el cielo te puede esperar
rezame
y no moriras
el dolor
de perder lo q se amo
se escurrira
si te entregas al fin..
FINAL:



© LaCuerda.net · Aviso Legal · Privacidad
DINAMICO