Tablatura para Guitarra de Mago De Oz: Cadavería
Conexión · Inscripción
Letras y Acordes
Pantalla Completa
Imprimir
Versión Texto
Añadir Favorito
Otras Versiones

Mostrar Diagramas
Desfile Automático
Manipular Acordes
Formato del Texto


Cadavería(TAB)

Mago De Oz

calidad:
mdoz2003
AUTOR: Mago de oz
ALBUM: Ilussia (2014)
Enviado por Cristian
este es el 1° solo de la cancion

E------------------------------
B------------------------------
G-14---------------------------
D---16-14------------14--------
A---------16-16-14-16---16-----
E------------------------------


E------------------------------
B------------------------------
G-14---------------------------
D---16-14----------------------
A---------16-16-14-------------
E------------------16-14-12----


E-------------------------------------------------------
B-----------------------------------------------10-11b--
G-14---------------------------14-12-10-9-10-12---------
D---16-14------------14-----16--------------------------
A---------16-16-14-16---16------------------------------
E-------------------------------------------------------

E------------------------
B----CRISTIAN-CAMILO-----
G-----CUPITRA BRAVO------
D------------------------
A------------------------
E------------------------
Este fichero es trabajo propio de su transcriptor y representa su interpretación personal de la canción. El material contenido en esta página es
para exclusivo uso privado, por lo que se prohibe su reproducción o retransmisión, así como su uso para fines comerciales.

© LaCuerda.net · Aviso Legal · Privacidad