Tablatura para Guitarra de Mago De Oz: Cadavería
Conexión · Inscripción
Letras y Acordes
Pantalla Completa
Imprimir
Versión Texto
Añadir Favorito
Otras Versiones

Mostrar Diagramas
Desfile Automático
Manipular Acordes
Formato del Texto


Cadavería(TAB)

Mago De Oz

calidad:
mdoz2001
AUTOR: Mago de oz
ALBUM: Ilussia (2014)
Enviado por Luis
Una versión muy general de la canción, tiene mas arreglos en teclados y
flautas pero con esto se saca la estructura básica, los solos se los debo
me dio flojera transcribirlo.

Intro Gaita

e ----------17---16---14----------------------------------------------------
B ----------------------------17----14--------12-----14----15---------------
G --------------------------------------------------------------------------
D --------------------------------------------------------------------------
A --------------------------------------------------------------------------
E --------------------------------------------------------------------------

e ---------17---16---14-----------------------------------------------------
B ----------------------------17----14----------12--------------------------
G -------------------------------------------------13-----------------------
D ------------------------------------------------------14-----16-----------
A --------------------------------------------------------------------------
E --------------------------------------------------------------------------

Violin - Dos veces

e --9---------------10------------------12---------------14----12----10-----
B -----10--10-----------10----10-----------10---10--------------------------
G --------------------------------------------------------------------------
D --------------------------------------------------------------------------
A --------------------------------------------------------------------------
E --------------------------------------------------------------------------

e --9---------------10---------------14---------12-------10-----------------
B -----10---10----------10---10----------10--------10-------10--------------
G --------------------------------------------------------------------------
D --------------------------------------------------------------------------
A --------------------------------------------------------------------------
E --------------------------------------------------------------------------


e ----9---------------9------------------9-------------------9---10---12----
B -------10---10---------10----10-----------10---10-------------------------
G --------------------------------------------------------------------------
D --------------------------------------------------------------------------
A --------------------------------------------------------------------------
E --------------------------------------------------------------------------

e --9--------------9------------------10----9-----7-------------------------
B ------10--10----------10---10---------------------------------------------
G --------------------------------------------------------------------------
D --------------------------------------------------------------------------
A --------------------------------------------------------------------------
E --------------------------------------------------------------------------



e ---------7---9----10------------9------10------12------14-------17---------
B --10-----------------------------------------------------------------------
G ---------------------------------------------------------------------------
D ---------------------------------------------------------------------------
A ---------------------------------------------------------------------------
E ---------------------------------------------------------------------------

e ----17----14-----------17---14---------------------------------------------
B ----------------17------------------17-------------------------------------
G ---------------------------------------------------------------------------
D ---------------------------------------------------------------------------
A ---------------------------------------------------------------------------
E ---------------------------------------------------------------------------


A Soy la voz del miedo y del adiós y
B soy principio y fin soy frió y calor
D A yo soy el príncipe de toda soledad.
A Sígueme no hay nada que perder
B si quieres ser feliz podemos construir
D algunos puentes mágicos a otro lugar. D --------------------------------------------------- A --------------------------------------------------- E ---5--5---5----7---7---7---9---9--9---12--12--12---
A Yo soy el miedo a envejecer
B soy partida de ajedrez
D A y tu alma juegan por ser inmortal
D A E F# Ven a mí el cielo te puede esperar,
D A E F# rézame y no morirás,
D A E F# el dolor de perder lo que se amó,
B B B D E E F# es tu vida si te entregas al fin a mi (en el primer solo se repite los acordes del coro) El primer solo es como el intro pero una octava abajo (mas grave)
A Soy la paz soy guerra y al final
B soy lo que piensas tu amor llanto y dolor
D A soy la manzana envenenada del edén
A entra en mi te llevare a un lugar donde
B se esconde el mal donde las lágrimas son
D A prisioneras y su cárcel es el mar
A la vida es solo una ilusión
B y el espejismo fue dolor
D que el sueño eterno para cicatrizar
D A E F# Ven a mí el cielo te puede esperar,
D A E F# rézame y no morirás,
D A E F# el dolor de perder lo que se amó,
B B B D E E F# es tu vida si te entregas al fin a mi
D E A F# Ven recuéstate en mí y el dolor se dormirá
B D E entrégame tu alma ven ahógate en mi
D E A F# te llenare de ausencias los recuerdos del ayer
B D E para asesinar nostalgias de tu ser (los mismos tonos en el solo 2 vueltas) **Solo de guitarra** batería y voz Yo te doy la eterna solución te libro desde hoy de todo tu pecar invocame por que la santa muerte soy
A uahh…
D A E F# Ven a mí el cielo te puede esperar,
D A E F# rézame y no morirás,
D A E F# el dolor de perder lo que se amó,
B B B D E E F# es tu vida si te entregas al fin a mi
D A E F# Ven a mí el cielo te puede esperar,
D A E F# rézame y no morirás,
D A E F# el dolor de perder lo que se amó,
B B B D E E F# es tu vida si te entregas al fin a mi
D A E F# Uooooo…
D A E F# Uooooo…
D A E F# Uooooo… Gaita e ----------17---16---14---------------------------------------------------- B ----------------------------17----14--------12-----14----15--------------- G -------------------------------------------------------------------------- D -------------------------------------------------------------------------- A -------------------------------------------------------------------------- E -------------------------------------------------------------------------- e ---------17---16---14----------------------------------------------------- B ----------------------------17----14-----12------------------------------- G -------------------------------------------------13----------------------- D ------------------------------------------------------14-----16----------- A -------------------------------------------------------------------------- E --------------------------------------------------------------------------
Este fichero es trabajo propio de su transcriptor y representa su interpretación personal de la canción. El material contenido en esta página es
para exclusivo uso privado, por lo que se prohibe su reproducción o retransmisión, así como su uso para fines comerciales.

© LaCuerda.net · Aviso Legal · Privacidad