Acordes de Guitarra » L »la Ley » el Duelo (Tab)

el Duelo
la Ley

Letras, Acordes y Tabs para Guitarra, Bajo y Ukulele

  • FA MI DO  MI DO MI  DO  MI DO  MI  DO MI
    
    
    verso:
    
    MI
    con una lagrima de fe sobre tu piel
    DO
    olvidé la grieta que dejó tu amor
    MI
    pero ese instinto taurino de tu ser
            DO
    me obligó a azotarte
    
    tiernamente...
    
    
    coro:
    
    SOL     RE      LA       DO
    
  • Introd: MIm - DO 
            Mim - DoM
    
    
        MIm               
    A) Como una lagrima de fe sobre tu piel
       DO 
       olvide la grieta, que dejo tu amor
        MIm
       pero ese instinto taurino de tu ser
               DO 
       me obligo a azotarte, tiernamente
    
    
        SOL   RE          LAm   DO 
    B) Sin dolor no te haces feliz
        SOL   RE          LAm   DO 
       sin dolor no te haces feliz
              SOL  - SIm - DO     SOL  - RE  - LAm - DO 
       sin amooooor,
    
  •      C      Em        C        Em       C
    
    
    
    E-----------------------------------------------------
    B-------------------3/5—-3--0-1---3-3/5—-3--0-1-------
    G—--------0—-2-4-----------—------------—-------------
    D-0-2—-4----------------------------------------------
    A-----------------------------------------------------
    E-----------------------------------------------------
    
    Em                                    
    como una lagrima de fe sobre tu piel
    C
    olvide la grieta que dejo tu amor
    Em                                       
    pero ese instinto taurino de tu ser
    C 
    me obligo a azotarte  huuuuu
    
    
  •    Em             C                  Em             C
    
    e--0--------------0----------0-------0--------------0---------0-----|
    B--0--------------1~-----------1~----0--------------0-----------1~--|
    G--0--------------0------------------0--------------0---------------|
    D--2~-------------2~--2--------------2~-------------2~--2-----------|
    A--2~--2-4-2~-----3~----3~-----------2~--2-4-2~-----3~----3~--------|
    E--X--------------X------------------X--------------X---------------|
    
                                                    Uouououoooo...!!! 
    
    RiffS Verso:
    
    
        Em Riff                    C Riff
    
    e-------------|            e-------------|
    B-------------|            B-------------|
    G-------------|            G-------------|
    D------2------|  x 4       D------2------|  x 4
    
  • intro
    G----------------------------|
    D----------------------------|
    A------0-2-3--2--------0-2-3-|
    E-0--3----------3-0--3-------|
    
    G--------------------------------------------|
    D------------------5-7-5---------------------|
    A--------------5-7-------7-5---3-2-----------|
    E--0-2--3-5-7----------------------5-3-2-----|
    
    Verso
    G------------------------------|
    D----------------5-7-5---------|
    A------------5-7-------7-5-3-2-|
    E--0-2-3-5-7-------------------|
    
    G-----------------------------------------------|
    D-------------------------5-7-5-----------------|
    A---------------------5-7-------5-7--3-2--------|
    E----5-3-2--0-2-3-5-7--------------------5-3-2--|
    
    
    Coro
    G------------------------------------|
    D-7-5-4-----------------7-5-4--------|
    A-------5--------3--3-3--------------|
    E---------5--5-5---------------------|
    
    G------------------------------------------------------|
    D------------------------------------------------------|
    A--------5--------3--3-3--------2--2-2--3--3-3—0-0*-0--|
    E----
  • HOLA SOY RIK, AQUI LA CANCION "EL DUELO" DE LA LEY.
    A TODOS LOS MUSICOS, ESPECIALMENTE "BAJISTAS", LOS INVITO A
    VISITAR MI BLOG:
    
    WWW.RIKBASSPLAYER.BLOGSPOT.COM
    
    ***** EL TEMA TIENE 3 PARTES *****
    
    RIFF 1 (INTRO)
    
    G|---------------------------|
    D|---------------------------|
    A|---------0-2-3-----5-3-2---|
    E|--0----3-----------------0-|
    
    
    RIFF 2 (ACOMP)
    
    SUBIDA (de grave a agudo)
    G|--------|--------|--------|-----0-5|-2-2-0-5|
    D|-2-----2|-----0-2|-2---0-2|-2-2----|--------|
    A|--------|---2----|---2----|--------|--------|
    E|---0-3--|-0------|--------|--------|--------|
    
    BAJADA (de agudo a grave)
    G|-0------|--------|--------|
    D|---2-0--|--------|--------|
    A|-------3|-3-3-2-3|-3-2----|
    E|--------|--------|-----3-0|
    
    
    RIFF 3 (CORO) [h = hammer on]
    
    G|------------------------|------------------------|
    D|-5h7-5-4----------------|-5h7-5-4----------------|
    A|---------5--0-0---2-3-3-|---------5--0-0---2-3-3-|
    E|------------------------|------------------------|
    
    G|------------------------|------
  • AQUI LES DEJO OTRA VERSION MAS PARA BAJO DE "EL DUELO".
    YA CON ALGUNAS CORRECIONES Y MEJORAS, PERO YA SABEN,
    CADA QUIEN LO HACE A SU MANERA, HAHA.
    ¡ESPERO QUE LES GUSTE!
    
    
    
    Riff 1 (INTRO)
    
    G---------------------------------------------------------
    D---------------------------------------------------------
    A-----------------0-2-3~----------------------3-3-2-------
    E----0~---------3-----------------------------------0~----
    
    G--------------------------------------------
    D--------------------------------------------
    A------0-2-3~--------------------------------
    E----3-------------------------------12s0----
    
    Riff 2 (VERSO)
    
    G----------------------------------------------------------
    D------------------------5--7775---------------------------
    A-------------------5--77---------775----------------------
    E------0202--335--77-------------------887--553------------
    
    Riff 3 (CORO)
    
    G----------------------------------------------------------------------
    D----5h7s5-4-------------------------5h7s5-4
  • Aqui les va el tab , tal vez no este tan exacto, pero suena
    bien con la rola, y les da una idea de que tocar con la rola
    Los breaks y remates son faciles de tocar, se basan solo
    en la tarola , y pues seria un desperdicio ponerlos,
    que se diviertan :)
    
    Intro
    
    C|-----------------|
    H|---x---x---x---x-|
    S|---o---o---o---o-|
    B|-o---o---o---o---|
    
    despues entran la guitarra y el bajo, sigues con el mismo ritmo
    hasta el gemido de beto cuevas , donde cambias asi:
    
    Pre-Verse:
    
    C|-----------------|---------|
    H|---x---x---x---x-|---------|
    S|---o---o---o---o-|--o-oooo-|
    B|-o---o---o---o---|-o-------|
    
    Verso:
    
    C|-----------------|
    H|---x---x---x---x-|
    S|---o---o---o---o-|
    B|-o---o---o---o---|
    
    Coro:
    
    C|-x---x---------|
    H|---------x---x-|
    S|-o---o---o---o-|
    B|---o---o---o---|
    
    Durante el solo de guitarra:
    
    R|---x---x---x---x-|
    S|---o---o---o---o-|
    B|-o---o---o---o---|
  • +
    ¡Colabora con nosotros!
    Envíanos tu versión de esta canción

Letra de el Duelo
verso:
con una lagrima de fe sobre tu piel
olvidé la grieta que dejó tu amor
pero ese instinto taurino de tu ser
me obligó a azotarte
tiernamente...
sin dolor no te haces feliz
sin dolor no te haces feliz
sin amooooooooor
>no sufres más
toda esa noche provocaste para mi
lo q a nadie muestro en la intimidad
pero esa forma, la mirada q hay en ti
me obligo a matarte uhhhh lentamente...
sin dolor no te haces feliz
sin dolor no te haces feliz
sin amooooooooor
tiernamente....
sin dolor no te haces feliz
sin dolor no te haces feliz
sin amooooooooor
>no sufres más............
es facil vieron suertee




[el Duelo chords][el Duelo cifra]
© LaCuerda.net · aviso legal · privacidad · es · en · pt · contacto