Acordes de Guitarra » L »la Ley » Fuera de mí (Tab)

Fuera de mí
la Ley

Letras, Acordes y Tabs para Guitarra, Bajo y Ukulele

  • EM  (022100)
    A+7 (002120)
    E4  (022200)
    Em7 (020100)
    
    
    E     
      Lentamente desvanezco y
    A+7    
      uso al viento de pretexto
    E                     A+7
       mi cabeza rueda en la escalera.
    E                   A+7                         
    Las miradas cinicas barren los detalles que
    E                         A+7                     
      al final del dia que moriran y digo...
    E           A+7      C#m  A+7   B 
    todo se me escapa un paso mas alla
    
                    E           A+7
    
  • E  (022100)
    Amaj7 (002120)
    Esus  (022200)
    E7 (020100)
    
    
    E
      Lentamente desvanezco y
    Amaj7
      uso al viento de pretexto
    E                      Amaj7
      mi cabeza rueda en la escalera.
    E                  Amaj7
    Las miradas cinicas barren los detalles que
    E                 Amaj7
      al final del dia  moriran y digo...
    E          Amaj7     C#m       B
    todo se me escapa un paso mas alla
    
                    E         Amaj7
    
  • e|----------------------------------------------------------------------------------------------|
    B|----------------------------------------------------------------------------------------------|
    G|---1--1-x-1-x-1-x-1-1-1-1^2--2-x-2-x-2-x-2-2-2-2-2^1-1-x-1-x-1-x-1-1-1-1----------------------|
    D|-4-2--2-x-2-x-2-x-2-2-2-2----2-x-2-x-2-x-2-2-2-2-2---2-x-2-x-2-x-2-2-2-2-4--4-x-4-x-4-x-4-4-4-|
    A|-2-2--2-x-2-x-2-x-2-2-2-2----2-x-2-x-2-x-2-2-2-2-2---2-x-2-x-2-x-2-2-2-2-2--2-x-2-x-2-x-2-2-2-|
    E|-0-0--0-----------0-0-0-0----0-------------0-0-0-0---0-------------------0--0-----------0-0-0-|
    
    Solo intro:
                    E               A                 E             A
    e|-------------------------------------------------------------------------|
    B|--------------------------------------------------------5----------------|
    G|-----4-----------------4--------------------------------4----------------|
    D|-4^6----4^6--/6----4^6---4^6----------2-2-----(/6)--4^6---4^6----2^4^2---|
    A|-----------------------------/4---2^4-----4-2-----------------/4---------|
    E|-------------------------------------------------------------------------|
    
    VERSO 1:
    E                       A
     Lentamente desvanezco y uso el viento de pretexto
    E                           A
    
  • * Intro:  E  A
      
      Riff1: 
             E-|-------------------------------------------------------|
          B-|-------------------------------------------------------|
          G-|--------------4-------------------4--------------------|
          D-|---------4/6-----4/6---------4/6-----4/6---------------|
          A-|----------------------7-------------------4------------|
          E-|-------------------------------------------------------|
    
    * Verso:  E  A
    
    * Choro: E  A  C#m  B
    
    * Bridge: A B Riff2
    
      Riff2:
          E-|-------------------------------------------------------|
          B-|----0-0/5----4-5--7--9-9----5-4------------------------|
          G-|---------------------------------4-4/6------1/4--------|
    
  • e|----------------------------------------|
    B|-------------------------2--2-x-2-2-2222|
    G|-1--1-1--1-x-1--1-1-1111-2--2-x-2-2-2222|
    D|-2--2-2--2-x-2--2-2-222--2--2-x-2-2-2222|
    A|-2--2-2--2-x-2--2-2-222--0--0-x-0-0-0000|
    E|-0--0-0--0-x-0--0-0---------------------|
    
    e|--------------------------------------|
    B|--------------------------------------|
    G|1-1-1-1-x-1-1111----------------------|
    D|--2-2-2-x-2-2222--4--4-4--4-x-4--444--|
    A|--2-2-2-x-2-22222-2--2-2--2-x-2--222--|
    E|--0-0-0-x-0-0000--0--0-0--0-x-0--000--|
    
    Solo intro:
               E                 A               E              A
    e|------------------------------------------------------------------------|
    B|----------------------------------------------------5-------------------|
    G|-----4---------------4v/1---------------------------4-------------------|
    D|-4^6---4/6vv----4^6------------------2v---------4h6---4/6-----2/4/2-----|
    
  •            E A D G B E
    
    E        : 0/2/2/1/0/0
    E2       : 0/2/2/1/2/0
    Esus4    : 0/2/2/2/0/0
    E/B      : 0/2/4/4/0/0
    E5sus2   : 0/2/2/4/0/0
    E5sus3   : 0/7/9/9/0/0
    B7sus4/E : 0/0/4/2/0/0
    Bsus2/F# : 2/2/4/4/2/2
    Esus/Db  : 0/0/2/4/2/0
    Esus     : 0/0/2/4/0/0
    Amaj7    : 0/0/2/1/2/0
    Csus2/Ab : 4/4/6/6/0/0
    Cm/Ab    : 4/4/6/6/5/0
    Csus/E   : 0/4/5/5/0/0
    
    
    
    
    
  • Intro
    G---------------------------|
    D---------------------------|
    A-----------------0--0-0-0--|
    E---0/7-0--0-0-0------------|
    
    
    G---------------------------|
    D---------------------------|
    A---------------------------|
    E-0--0-0-0--4-5-5-5-5-------|
    
    
    lentamente...
    G-------------------------------|
    D-------------------------------|
    A-----------0--0-0-0------------|
    E-0--0-0-0------------0--0-0-0--|
    
    
    G-------------|
    D-------------|
    A-------------|X2 
    E--4-5--5-5-5-|
    
    y digo...Todo se me escapa...
    G----------------------------------|
    D----------------------------------|
    A------------------------4-4-4--4--|
    E-0--0-0-0--4-5--5-5-5--5----------|
    
    G--------------------------|
    D--------------------------|
    A-2--2-2-2--2-----0-2------|
    E---------------------4--0-|
    
    fuera de mi..
    G---------------------------------|
    D---------------------------------|
    A-----------------------------2-4-|
    E-(0)--0-0-0--0-4-5--5-5-5--5-----|
    
    G-------------------------------|
  • Intro:
    
    CR|X---------------|----------------|----------------|
    H |--x-x-x-x-x-x-x-|x-x-x-x-x-x-x-x-|x-x-x-x-x-x-x-x-|
    T |----o-------o---|----o-------o---|----o-------o---|
    B |O-------O-O-----|O-------O-O-----|O-------O-O-----|
    
    CR|----------------|
    R |x-x-x-x-x-x-x---|
    T1|--------------o-|
    T |----o-------o---|
    B |O------O--O-----|
    
    Verso 1:
    
    CR|----------------|----------------|----------------|
    H |z-x-x-x-x-x-x-x-|x-x-x-x-x-x-x-x-|x-x-x-x-x-x-x-x-|
    T |----@-------@---|----@-------@---|----@-------@---|
    B |O-------O-O-----|O-------O-O-----|O-------O-O-----|
    
    CR|----------------|----------------|----------------|
    H |x-x-x-x-x-x-x-x-|x-x-x-x-x-x-x-x-|x-x-x-x-x-x-x-x-|
    T |----@-------@---|----@-------@---|----@-------@---|
    B |O-------O-O-----|O-------O-O-----|O-------O-O-----|
    
    CR|----------------|----------------|
    H |x-x-x-x-x-x-x-x-|x-x-x-x-x-x-x-x-|
    T |----@-------@---|----@-------o---|
    B |O-------O-O-----|O-------O-O-----|
    
    Pre-Coro:
    
    CR|X---------------|----------------|------------
  • +
    ¡Colabora con nosotros!
    Envíanos tu versión de esta canción

Letra de Fuera de mí
Lentamente desvanezco y
uso al viento de pretexto
mi cabeza rueda en la escalera.
Las miradas cinicas barren los detalles que
al final del dia que moriran y digo...
todo se me escapa un paso mas alla
Fuera de mi en el umbral del mundo
sin necesidad de entrar,
Fuera de mi perdido en otro rumbo
sin necesidad de volver
me encontre en un balcon
con un angel celestial
que me devolvio mi cabeza ah ah,
me explicó como encontrar
cuando se desprende el alma
conectandola a mi corazón y digo...
todo se me escapa un paso mas alla
Fuera de mi en el umbral del mundo
sin necesidad de entrar,
Fuera de mi perdido en otro rumbo
sin necesidad de volver
solte los lazos que me atan
fuera de mi
(en esta estrofa dejar sonar solo una vez cada acorde)
Cuando el dia se agotó
senti que era tiempo de
regresarle pasos al camino,
Pregunte de vuelta si
todavia existia el amor
nadie se digno a contestar
Fuera de mi perdido en otro rumbo
sin necesidad de volver
solte los lazos que me atan
dejando huellas que pisan
fuera de mi




[Fuera de mí chords][Fuera de mí cifra]
© LaCuerda.net · aviso legal · privacidad · es · en · pt · contacto