Tablatura para Bajo de la Ley: el Duelo
Conexión · Inscripción
Letras y Acordes
Pantalla Completa
Imprimir
Versión Texto
Añadir Favorito
Otras Versiones

Mostrar Diagramas
Desfile Automático
Formato del Texto


el Duelo(BAJ)

la Ley

calidad:
lley0227
AUTOR: Alfredo Gatíca
ALBUM: Invisible (1995)
Enviado por Chris
AQUI LES DEJO OTRA VERSION MAS PARA BAJO DE "EL DUELO".
YA CON ALGUNAS CORRECIONES Y MEJORAS, PERO YA SABEN,
CADA QUIEN LO HACE A SU MANERA, HAHA.
¡ESPERO QUE LES GUSTE!



Riff 1 (INTRO)

G---------------------------------------------------------
D---------------------------------------------------------
A-----------------0-2-3~----------------------3-3-2-------
E----0~---------3-----------------------------------0~----

G--------------------------------------------
D--------------------------------------------
A------0-2-3~--------------------------------
E----3-------------------------------12s0----

Riff 2 (VERSO)

G----------------------------------------------------------
D------------------------5--7775---------------------------
A-------------------5--77---------775----------------------
E------0202--335--77-------------------887--553------------

Riff 3 (CORO)

G----------------------------------------------------------------------
D----5h7s5-4-------------------------5h7s5-4---------------------------
A------------5--------------2-3-3------------5-------------2-3-3-------
E---------------------5-5----------------------------5-5----------5----

G----------------------------------------------------------------------
D------------------------------------5h7s5-4---------------------------
A------------22------33------2---------------5-------------2-3-3-------
E----33------------------------55--------------------5-5----------5----
Este fichero es trabajo propio de su transcriptor y representa su interpretación personal de la canción. El material contenido en esta página es
para exclusivo uso privado, por lo que se prohibe su reproducción o retransmisión, así como su uso para fines comerciales.

© LaCuerda.net · Aviso Legal · Privacidad