Tablatura para Bajo de la Ley: el Duelo
Conexión · Inscripción
Letras y Acordes
Pantalla Completa
Imprimir
Versión Texto
Añadir Favorito
Otras Versiones

Mostrar Diagramas
Desfile Automático
Formato del Texto


el Duelo(BAJ)

la Ley

calidad:
lley0223
AUTOR: Alfredo Gatíca
ALBUM: Invisible (1995)
Enviado por FIDEL
intro
G----------------------------|
D----------------------------|
A------0-2-3--2--------0-2-3-|
E-0--3----------3-0--3-------|

G--------------------------------------------|
D------------------5-7-5---------------------|
A--------------5-7-------7-5---3-2-----------|
E--0-2--3-5-7----------------------5-3-2-----|

Verso
G------------------------------|
D----------------5-7-5---------|
A------------5-7-------7-5-3-2-|
E--0-2-3-5-7-------------------|

G-----------------------------------------------|
D-------------------------5-7-5-----------------|
A---------------------5-7-------5-7--3-2--------|
E----5-3-2--0-2-3-5-7--------------------5-3-2--|


Coro
G------------------------------------|
D-7-5-4-----------------7-5-4--------|
A-------5--------3--3-3--------------|
E---------5--5-5---------------------|

G------------------------------------------------------|
D------------------------------------------------------|
A--------5--------3--3-3--------2--2-2--3--3-3—0-0*-0--|
E----------5--5-5--------3--3-3------------------------|


G--------------------------------|
D--------------------------------|
A----------2--2-2--3--3-0—0*-0*--|
E---3--3-3-----------------------|

Verso
G--------------------|
D--------------------|
A-----0-2-3--2-------|
E-0-3----------------|

G-------------------------------------|
D----------------5-7-5----------------|
A------------5-7-------7-5--3-2-------|
E--0-2-3-5-7--------------------5-3-2-|

G------------------------------------------|
D-----------------5-7-5--------------------|
A-------------5-7--------7-5--3-2----------|
E---0-2-3-5-7---------------------5-3-2----|

Coro x2

G------------------------------------|
D-7-5-4-----------------7-5-4--------|
A-------5--------3--3-3--------------|
E---------5--5-5---------------------|

G------------------------------------------------------|
D------------------------------------------------------|
A--------5--------3--3-3--------2--2-2--3--3-3—0-0*-0--|
E----------5--5-5--------3--3-3------------------------|


G--------------------------------|
D--------------------------------|
A----------2--2-2--3--3-0—0*-0*--|
E---3--3-3-----------------------|


Solo de guitarra

G------------------------------------|
D-7-5-4-----------------7-5-4--------|
A-------5--------3--3-3--------------|
E---------5--5-5---------------------|

G------------------------------------------------------|
D------------------------------------------------------|
A--------5--------3--3-3--------2--2-2--3--3-3—0-0*-0--|
E----------5--5-5--------3--3-3------------------------|


G--------------------------------|
D--------------------------------|
A----------2--2-2--3--3-0—0*-0*--|
E---3--3-3-----------------------|

Final
G------------------------------|
D------------------------------|
A---------0-2-3------3-2-------|
E-0-----3-----------------3-0--|
Este fichero es trabajo propio de su transcriptor y representa su interpretación personal de la canción. El material contenido en esta página es
para exclusivo uso privado, por lo que se prohibe su reproducción o retransmisión, así como su uso para fines comerciales.

© LaCuerda.net · Aviso Legal · Privacidad