Acordes de Guitarra » L »la Ley » Día Cero (Tab)

Día Cero
la Ley

Letras, Acordes y Tabs para Guitarra, Bajo y Ukulele

  • Intro  Gm
    
    Gm
    Veo lo que creo ver y no veo más,
    
    de lo que pueda contar no recuerdo nada,
    F                           Gm
    no hay necesidad, de hablarlo más.
    
    Creo creerte no temer que esto es verdad,
    la vida se nubló en su totalidad,
                         Am
    estoy perdido, y no se mirar, lo que dejé allá atrás.
    
    CORO 1
    Bb      Eb
    En, ese camino largo,
    Dm
    que un día amé yo caminar,
    Bb         Eb
    
  • Gm
    
    E|-6--8-5-----6-----6---5-----5---3-----3---1-----1-|
    B|----------3---3-3---3---3-3---3---3-3---1---1-1---|
    G|--------------------------------------------------|
    D|--------------------------------------------------|
    A|--------------------------------------------------|
    E|--------------------------------------------------| (x2)
    
    Gm
    Veo Lo Que Creo Ver Y No Veo Más
    
    De Lo Que Pueda Contar No Recuerdo Nada
    F                             Gm
    No Hay Necesidad De Hablarlo Más
    
    E|---6-----6---5-----5---3-----3---1-----1--3-|
    B|-3---3-3---3---3-3---3---3-3---1---1-1----3-|
    G|------------------------------------------3-|
    D|------------------------------------------5-|
    
  • Intro: (Gm) 
    e|---------------------------|
    b|---------------------------|
    g|---------------15h17-15h17~|
    D|--17~-17-17-17-------------|
    A|---------------------------|
    E|---------------------------|
                (Gm)
    e|------------------------------------------|
    b|---------------------15h18-15p18----------|
    g|---------------15h17-------------17p15----|
    D|--17~-17-17-17-------------------------17~|
    A|------------------------------------------|
    E|------------------------------------------|
                  (Gm)
    e|-----------------------------------|
    b|-----------------------------------|
    g|-----------15h17-17-17p15----------|
    D|--17-17-17----------------17-15-17~|
    A|-----------------------------------|
    
  • Afinacion: standard BEADG
    
    Intro, verso 1: Gm
    G|--------------------------------------------------------|
    D|--------------------------------------------------------|
    A|--------------------------------------------------------|
    E|------------6-------------6h8p6-------------------------|x10
    B|---8-----6-8--8-----8h10p8------------------------------|
    
    Puente: F
    G|--------------------------------------------------------|
    D|--------------------------------------------------------|
    A|--------------------------------------------------------|x2
    E|--------------------------8h10~-------------------------|
    B|---8----8-8h10-8----8h10-8------------------------------|
    
    Verso 2: Gm
    G|--------------------------------------------------------|
    D|--------------------------------------------------------|
    A|--------------------------------------------------------|
    E|------------6-------------6h8p6-------------------------|x6
    B|---8-----6-8--8-----8h10p8------------------------------|
    
    Puente: F
    G|----------
  • La canción es muy fácil  los breaks  los dejo a su juicio, 
    pueden usar los mismos que también son muy fáciles, o 
    pueden usar su creatividad y meter unos mas chidos,
    
    Intro 
    
    t1 |------o----o------o--------|
    t2 |---o----o------o-----------|   ||:    
    t3 |-------------o-------------|
    
    verso / coro 
    
    h |---x--—x---x—--x—--x—--x—--x--—x---|
    s |---------- X---------------X-------|   ||:    
    b |---o-----o-----o---------o---------|
    
    
    
    
    h:  contra tiempos
    s:  tarola
    b:  bombo
    t1: tom 1
    t2: tom 2
    t3: tom 3
    s:  splash
    c:  crash
    r:   ride 
    
    
    
    la neta me da mucha hueva poner los breaks x eso solo 
    pongo los ritmos, pero si necesitas ayuda con alguno 
    mandame un mail, lo transcribo y te lo envío….
    drummx@hotmail.com
  • +
    ¡Colabora con nosotros!
    Envíanos tu versión de esta canción
  • Tutorial
    HD
    Como tocar DIA CERO en guitarra - La Ley [Tutorial Somos Posers]
    7:10

Letra de Día Cero
Veo lo que creo ver y no veo más,
de lo que pueda contar no recuerdo nada,
no hay necesidad, de hablarlo más.
Creo creerte no temer que esto es verdad,
la vida se nubló en su totalidad,
estoy perdido, y no se mirar, lo que dejé allá atrás.
En, ese camino largo,
que un día amé yo caminar,
nació esta ciega herida,
que borró hoy día mi ayer.
Personas extrañas hablan de quien fui,
pretenden darme valor sin que sepa nada,
no hay necesidad, ni siquiera de llorar, por estar así.
Mi amnesia me dice,
absolutamente nada más, que esa sensación de ansiedad.
En, ese camino largo,
que un día amé yo caminar,
que envió una biografía,
y suplí cenizas del ayer.
3
Y tratan de enseñarme,
quien me quiso y a quien debo amar,
comienza el día cero,
y mañana su continuidad.
sharudarudadaun sharudarudadaun
y suple cenizas del ayer.
sharudarudadaun sharudarudadaun
y suple cenizas de mi ayer.
No intenten enseñarme,
sharudarudadaun sharudarudadaun
sharudarudadaun sharudarudadaun
quien me quiso y a quien debo amar,
sharudarudadaun sharudarudadaun
sharudarudadaun sharudarudadaun
sharudarudadaun sharudarudadaun
quien me quiso y a quien debo amar.




[Día Cero chords][Día Cero cifra]
© LaCuerda.net · aviso legal · privacidad · es · en · pt · contacto