Acordes de Guitarra » L »la Ley » Más Allá (Tab)

Más Allá
la Ley

Letras, Acordes y Tabs para Guitarra, Bajo y Ukulele

  • Intro: F, G
    
    F                   G
    Tengo ganas de gritar
    F                    G
    y mi boca esta cerrada
    F                       G
    no tenia nada que ocultar
    F                      G
    y nadie me ocultaba nada
    
    F                                                             
    Hay algo mas o algo menos
    G                        
    me da igual lo mal o bueno
    F                        G
    dejar morir  / dejar vivir 
    
    Dm                         F
    Estoy hundiéndome en la oscuridad del mar
    
  • Intro: D, E
    
    D                   E
    Tengo ganas de gritar
    D                    E
    y mi boca esta cerrada
    D                       E
    no tenia nada que ocultar
    D                      E
    y nadie me ocultaba nada
    
    D                       E                                      
    Hay algo mas o algo menos
    D                        E
    me da igual lo mal o bueno
    D                        E
    dejar morir  / dejar vivir 
    
    Bm                                      G
    Estoy hundiéndome en la oscuridad del mar
    
  • Intro: D/B   E   (x4)
    
    D/B                E
    Tengo ganas de gritar
    D/B                E
    y mi boca esta cerrada
    D/B                    E
    no tenia nada que ocultar
    D/B                  E
    y nadie me ocultaba nada
    
    D
    Hay algo mas o algo menos
           E
    me da igual lo mal o bueno
    D                      E
    dejar morir  / dejar vivir
    
    Bm                         D
    Estoy hundiéndome en la oscuridad del mar
    
  •          D              E                   D        E
    e|--2---2--2--2------4---4--4-5p4-------2---2-2-2----4--
    b|--3---3--3--3------5---5--5-----5-----3---3-3-3----5--
    g|--2---2--2--2--2---4---4--4-------4---2---2-2-2-2--4--
    D|------------------------------------------------------
    A|------------------------------------------------------
    E|--0~---------------0~-----------------0~-----------0~-
    
                      D              E
    e|--4-4h5-7-5-4-2--2--2--2-----4--4--4-5p4------
    b|--5-----------3--3--3--3-----5--5--5-----5----
    g|--4-----------2--2--2--2--2--4--4--4-------4--
    D|----------------------------------------------
    A|----------------------------------------------
    E|--------------0~-------------0~---------------
         D              E               D
    e|--2--2--2--2-----4--4-4h5-7-5-4---2---|
    b|--3--3--3--3-----5--5-------------3---|
    g|--2--2--2--2--2--4--4-------------2---|
    D|--------------------------------------|
    
  •   1:14    1:27 - 3:06  Coro:  C  F   G    C  Em F   G   C
    |-------|------------|      |-----------------------------|
    |-------|------------|      |-----------------------------|
    |-------|-2-4-4/6-4--|      |-5--10--12---5--9--10--12--5-|
    |-4h6-4-|------------|      |-5--10--12---5--9--10--12--5-|
    |-------|------------|      |-3--8---10---3--7--8---10--3-|
    |-------|------------|      |-----------------------------|
    
    esto se hace durante los versos después del
    primer coro:
    
      D    E
    |-0---2-0-|
    |---------|
    |---------|
    |---------|
    |---------|
    |---------|
    
    Solo 3:43
    
  • +
    ¡Colabora con nosotros!
    Envíanos tu versión de esta canción

Letra de Más Allá
Tengo ganas de gritar
y mi boca esta cerrada
no tenia nada que ocultar
y nadie me ocultaba nada
Hay algo mas o algo menos
me da igual lo mal o bueno
dejar morir / dejar vivir
Estoy hundiéndome en la oscuridad del mar
aquí no hay aire pero al fin podré llegar
Mas allá
Espero un sol que me llevara
Sin temer volar
donde un sueño es realidad
Mas allá
podré mentirle a mi corazón
sin tener razón
Mas allá no miente la verdad
Tengo ganas de brillar
y mi luz esta apagada
no tenia a nadie a quien culpar
y nadie culpabilizaba
Hay algo mas o algo menos
me da igual lo mal o bueno
dejar morir / dejar vivir
Estoy hundiéndome en la oscuridad del mar
aquí no hay aire pero al fin podré llegar
Mas allá
Espero un sol que me llevara
Sin temer volar
donde un sueño es realidad
Mas allá
podré mentirle a mi corazón
sin tener razón
Mas allá no miente la verdad
Hermanos del viento comparten la razón
en cada momento que el tiempo desdeño
Viento desde el mas allá
despierta el sol que me llevara
sin temer volar
donde un sueño es realidad
Mas allá
podré mentirle a mi corazón
sin tener razón
Mas allá no miente la verdad
Le dedico esta cancion al Amor de Mi Vida. Aunque no sea una
cancion de amor, se la dedico igual, por ser la persona mas
importante que tengo en el mundo. Te Amo V.S.P.




[Más Allá chords][Más Allá cifra]
© LaCuerda.net · aviso legal · privacidad · es · en · pt · contacto