Tablatura para Bajo de la Ley: el Duelo
Conexión · Inscripción
Letras y Acordes
Pantalla Completa
Imprimir
Versión Texto
Añadir Favorito
Otras Versiones

Mostrar Diagramas
Desfile Automático
Formato del Texto


el Duelo(BAJ)

la Ley

calidad:
lley0225
AUTOR: Alfredo Gatíca
ALBUM: Invisible (1995)
Enviado por Rik
HOLA SOY RIK, AQUI LA CANCION "EL DUELO" DE LA LEY.
A TODOS LOS MUSICOS, ESPECIALMENTE "BAJISTAS", LOS INVITO A
VISITAR MI BLOG:

WWW.RIKBASSPLAYER.BLOGSPOT.COM

***** EL TEMA TIENE 3 PARTES *****

RIFF 1 (INTRO)

G|---------------------------|
D|---------------------------|
A|---------0-2-3-----5-3-2---|
E|--0----3-----------------0-|


RIFF 2 (ACOMP)

SUBIDA (de grave a agudo)
G|--------|--------|--------|-----0-5|-2-2-0-5|
D|-2-----2|-----0-2|-2---0-2|-2-2----|--------|
A|--------|---2----|---2----|--------|--------|
E|---0-3--|-0------|--------|--------|--------|

BAJADA (de agudo a grave)
G|-0------|--------|--------|
D|---2-0--|--------|--------|
A|-------3|-3-3-2-3|-3-2----|
E|--------|--------|-----3-0|


RIFF 3 (CORO) [h = hammer on]

G|------------------------|------------------------|
D|-5h7-5-4----------------|-5h7-5-4----------------|
A|---------5--0-0---2-3-3-|---------5--0-0---2-3-3-|
E|------------------------|------------------------|

G|------------------------|------------------------|------|
D|------------------------|-5h7-5-4----------------|------|
A|-2------2-2--3-3--2-----|---------5--0-0---2-3-3-|-2----|
E|---3-3--------------5-5-|------------------------|---0--|


TODO MI AMOR PARA MI BELLA SISSY Y MI HERMOSA HIJA ZOE.
www.rikbassplayer.blogspot.com
www.youtube.com/rikbassplayer
Este fichero es trabajo propio de su transcriptor y representa su interpretación personal de la canción. El material contenido en esta página es
para exclusivo uso privado, por lo que se prohibe su reproducción o retransmisión, así como su uso para fines comerciales.

© LaCuerda.net · Aviso Legal · Privacidad