Acordes de Guitarra » H »Hombres G » Sin Tí (Tab)

Sin Tí
Hombres G

Letras, Acordes y Tabs para Guitarra, Bajo y Ukulele

  •   RE                 F#m
    No se donde estas, te busco en el jardin
        Am                  G
    Las flores no me dejan verte
     Em              F#m-Gm
    Con tanta oscuridad, la musica tan alta
       RE                      Em      A
    La luz de las estrellas me ayudara
    
     RE                   F#m
    Por fin te encuentro, estas alli
       Am                      B7
    Desnuda en la piscina, tan feliz
         Em                  F#m-Gm
    Y no me atrevo a respirar, por miedo a estropear
     RE                   Em      A
    El sueño de verte chapotear
       RE                   F#m
    Si ti la piscina esta ya muerta
         Am                  B7
    
  • Intro: RE  REsus4  FA#m  FA#madd9-
           RE7 RE7sus4 SI7   MIm
           FA#m  SOLm  RE  LA
    
    RE          REsus4
    No se donde estas
      FA#m           FA#madd9-
    te busco en el jardin
         RE7          RE7sus4  SI7
    las flores no me dejan     verte
        MIm             FA#m
    con tanta oscuridad
      SOLm
    la musica tan alta
       RE                            LA
    la luz de las estrellas me ayudara.
    
    
    Por fin te encuentro estas alli
    desnuda en la piscina, tan feliz
    
  • A C#m* Em7 D (Dsus) Bm-C#m-Dm A D E
    
    
    A
    No se donde estas,
       C#m*
    te busco en el jardín,
        Em7                 D (Dsus)
    las flores no me dejan verte,
         Bm             Bm-C#m-Dm
    Con tanta oscuridad
    la musica tan alta,
        A                             D E
    la luz de las estrellas me ayudara
    
    
         A
    Por fin, te encuentro
          C#m*
    estas alli,
    
  • A Amaj7 A7 D (Dsus) Bm-C#m-Dm A    E F#m E
    
    
    A
    No se donde estas,
       Amaj7
    te busco en el jardín,
        A7                 D (Dsus)
    las flores no me dejan verte,
         Bm             Bm-C#m-Dm
    Con tanta oscuridad
    la musica tan alta,
        A              E               F#m   E
    la luz de las estrellas me ayudaran
    
    
         A
    Por fin, te encuentro
          Amaj7
    estas alli,
    
  • Amaj7   A7
    
    -0-   -0-           A          Amaj7
    -2-   -2-        e|-0--0-0-0---0-0-0-0---------------
    -1-   -0-        B|-2--3-2-0---2-3-2-0---------------
    -2-   -2-        G|-2--2-2-2---1-1-1-1---------------
    -0-   -0-        D|-2--2-2-2---2-2-2-2---------------
    -x-   -0-        A|-0--0-0-0---0-0-0-0---------------
                     E|----------------------------------
    
    Intro:
    
    A Amaj7 A7 D Dsus
    Bm-C#m-Dm
    A D E
    
    
       A Amaj7 A7                                D  Dsus
    e|-------------------------|------------------------|
    B|-------------------------|------7-----------8-8h7-|
    
  • e------------------------------------------------------
    b-------------------------------------787--7-----------
    g-7-6--6--676-6-----8--6------------9--------7---------
    d---------------6--------6--------9------------7-------
    a-----------------7--------7----7----------------------
    E-----------------------------0------------------------
    
    
    e----------------------------------------7_5-----------
    b-----------7-9-10---7---7-------7--8--9----6---6--6---
    g---7--9--7-7-9-10-7---7------7--7--8--9------7--------
    d-7-------------------------9--------------------------
    a------------------------------------------------------
    E------------------------------------------------------
    
    
    e--------------------------------------------------5--4
    b---------5--7---5----------5--7--5--------7--7--7-5--5
    g---6--7-------------6--7-------------6--7-------------
    d------------------------------------------------------
    a------------------------------------------------------
    E----------------------
  • Si creen poder mejorar es Bass por favor mándenmelo.
    
    
    G ------------------------------------------------------------
    D ----------------------------------------------2-0-----------
    A -–0/2-2-3-2-0---0/2-------------2-3-----2-3-3-----3-2-------
    E --------------2-----3-3-3-2-0/2-----3-2----------------4-6-6
    
    
    G ------------------------------------------------I
    D ------------------------------------------------I
    A -----4-2----------5-7-5-----5-7-5-----5-5--7-5--I
    E –2-4-----3-2--5/7-------5/7-------5/7-----------I
    
    
    
    Esta canción es una de mis favoritas y se la dedico a Rosa 
    que siempre tendrá un lugar muy especial en mi corazón.
    Sin Tí nunca me hubiese gustado tanto la música.
    Sin Tí nunca hubiese vuelto a confiar.
    Pero lo más importante...
    Sin Tí nunca hubiese vuelto a Amar.
  • +
    ¡Colabora con nosotros!
    Envíanos tu versión de esta canción

Letra de Sin Tí
No se donde estas, te busco en el jardin
Las flores no me dejan verte
Con tanta oscuridad, la musica tan alta
La luz de las estrellas me ayudara
Por fin te encuentro, estas alli
Desnuda en la piscina, tan feliz
Y no me atrevo a respirar, por miedo a estropear
El sueño de verte chapotear
Si ti la piscina esta ya muerta
Tumbados en la hierba, sin hablar
Tu piel mojada y mis labios secos, se confunden en
un beso
Acerco una toalla y te envuelvo
He vuelto a despertar, he vuelto a soñar
No podria soportar perderte
Aunque tu creas que no, todo mi corazon
Tiembla cuando te ve llorar
Si ti desearia sonreir
que podria yo decir?, sin ti
y no me atrevo a respirar, por miedo a provocar
que esos ojitos azules lloren mas
Por ti, dejaria de vivir
y no me atrevo a respirar, por miedo a estropear
el sueño de que me vuelvas a besar.
Esta es mi primera transcripcion espero les sirva:::haaaa y un
Saludo a toda la bandera de los chuntaros:::::::tk:::::




[Sin Tí chords][Sin Tí cifra]
© LaCuerda.net · aviso legal · privacidad · es · en · pt · contacto