Acordes de Guitarra » H »Hombres G » Martha tiene un Marcapasos (Tab)

Martha tiene un Marcapasos
Hombres G

Letras, Acordes y Tabs para Guitarra, Bajo y Ukulele

  •  A             F#m
    Marta tiene un marcapasos
            A              F#m
    Que le anima el coraz¢n
               A            F#m
    No tiene que darle cuerda
            E    B
    Es autom tico
    
               A           F#m
    Puedes o¡r sus pataditas
          A             F#m
    Est  vivo creo yo
              A           F#m
    Marta tiene un pasajero
           E    B         E     B
    En su coraz¢n, en su coraz¢n
    
    C             G
    Sent¡ un golpe en el pecho
    
  • A / LA ↓↑ ↓↑ ↓↑ ↓↑
    
    ESTROFA
    
          A (5°)        F#m
    Marta tiene un marcapasos
            A              F#m
    Que le anima el coraz¢n
               A            F#m
    No tiene que darle cuerda
            E    B
    Es automatico
    
               A           F#m
    Puedes oir sus pataditas
          A          F#m
    Esta vivo creo yo
              A           F#m
    Marta tiene un pasajero
           E    B         E     B
    
  •         AY LES VA!
    e---------------------------------------------------------
    B---------------------------------------------------------
    G------6-6-6-6-6-6-6-6-6/7-6-6----------------4/6--4------
    D-------------------------------7-7-7----4---7-------7-7-7
    A-----------------------------------7---------------------  
    E---------------------------------------------------------
    
    
    e-----------------------------------------------------
    B---10----10-10-----10----10------10-10-----10----10--
    G-11----11-------11----11------11--------11-----11----
    D-----------------------------------------------------
    A-----------------------------------------------------
    E-----------------------------------------------------
    
    
    e---------------------------------------------
    B--14-14-14-14-14-14-14-14----12-12----10-----
    G---------------------------------------------
    D---------------------------------------------
    A---------------------------------------------
    E---------------------------------
  • esta es la primera transcripción  que hago solo espero que les guste
    y les ayude
    
    
    inicio
    
    G--------------
    D--7-7-7-7-7-7-
    A--------------
    E--------------
    
      martha tiene    un marca pasos
    G-------------------------------
    D-------------------------------
    A-------------------------------
    E--5--5-5--5-------2--2-2--2----
    
      que le anima     el corazón
    G-------------------------------
    D-------------------------------
    A-------------------------------
    E--5--5-5--5-------2--2-2--2----
    
      no tiene que    darle cuerda  es automatico
    G---------------------------------------------
    D---------------------------------------------
    A--------------------------------------7------
    E--5--5-5--5-------2--2-2--2----2-2-2----7----
    
    
    coro
    
     senti un golpe  en el pecho   El Solo Queria Besarte
    G----------------0-0-0--0-------------------------------
    D-------------------------------------------------------
    A-----------------------------8-8-8--8-8-8--8--8
    E--8-8-8--8-----------------------------------------
    
    
  • +
    ¡Colabora con nosotros!
    Envíanos tu versión de esta canción

Letra de Martha tiene un Marcapasos
Marta tiene un marcapasos
Que le anima el coraz¢n
No tiene que darle cuerda
Es autom tico
Puedes o¡r sus pataditas
Est vivo creo yo
Marta tiene un pasajero
En su coraz¢n, en su coraz¢n
Sent¡ un golpe en el pecho
Yo s¢lo quer¡a besarte
Ha salido el marcapasos
Entre v¡sceras y sangre
M¡rale que ojitos tiene
Es id‚ntico a su padre,
es id‚ntico a su padre
Juega con todos los ni¤os
Les arranca el coraz¢n
Se los come con tomate
Que simp tico
No hay criatura m s hermosa
Que el peque¤o marcapasos
Marta estalla como loca de manicomio
De manicomio




[Martha tiene un Marcapasos chords][Martha tiene un Marcapasos cifra]
© LaCuerda.net · aviso legal · privacidad · es · en · pt · contacto