Acordes de Guitarra » H »Hombres G » Indiana (Tab)

Indiana
Hombres G

  • Letra y Acordes
                        C
    Es inútil que sigas mintiendo
                         G
    A mi no me puedes engañar
                            C
    Y es que me pones los cuernos
                            G
    Con el batería del siniestro total
                        Am
    Te crees que no me entero
                     F
    Que me chupo el dedo
                                C
    Como yo te vea otra vez con el
                 G
    Te vas a enterar.
    
                            C
    Es ese invesil del sombrero
                            G
    
  • Letra y Acordes
                         C 
    Es inútil que sigas mintiendo
                       G 
    A mi no me puedes engañar
                         C 
    Yo se que me pones los cuernos
                      G 
    Con el batería de siniestro, total
                      A 
    Te crees que no me entero
                Am
    Que me chupo el dedo
                         C 
    Como ye te vea otra vez con el
                D 
    Te vas a enterar...
                               C 
    ¿quién es ese imbécil del sombrero?
                            G 
    Que me han dicho que estas con el
    
  • Tablatura
    Aqui les va el solo de Indiana de los Hombres G 
    espero les guste
    
    E|-----------------------------------------------
    B|-----------------------------------------------
    G|---0--0---2--0---------------------------------
    D|--2-----2--------------------------------------
    A|---------------3--3--0--3----------------------
    E|-----------------------------------------------
    
    E|-----------------------------------------------
    B|-----------------------------------------------
    G|---0--0---2--0---------------------------------
    D|--2-----2--------2--0--0--------------------------
    A|-------------------------------------------
    E|-----------------------------------------------
    
    E|-----------------------------------------------
    B|-----------------------------------------------
    G|---0--0---2--0---------------------------------
    D|--2-----2--------------------------------------
    A|---------------3--3--0--3----------------------
    E|-----------------------------------------------
    
    Aqui se
  • +
    ¡Colabora con nosotros!
    Envíanos tu versión de esta canción
  • Tutorial
    HD
    Indiana - Hombres G - Como tocar en guitarra acordes
    3:55

Letra de Indiana
Es inútil que sigas mintiendo
A mi no me puedes engañar
Y es que me pones los cuernos
Con el batería del siniestro total
Te crees que no me entero
Que me chupo el dedo
Como yo te vea otra vez con el
Te vas a enterar.
Es ese invesil del sombrero
Me han dicho que estas con el
Con su capadora de cuero
Su látigo y su revolver que bien
Indiana jones
Ya me tienen hartas tus historias
Y vuelve el héroe
Para llevarse a mí novia.
Dios mió que te he hecho yo (oh indiana)
Nunca me he portado mal contigo niña (oh indiana)
Dios mió que te he hecho yo (oh indiana)
Te dejara por ahí
Se ira al templo maldito
Y volverás a dormir.
Indiana, indiana
Indiana, indiana
No sabes decir otra cosa
Ya me tienes hasta la banana
Has visto 14 veces la película
Ya me estas torturando con la música
Voy al rastro a cambiar los cromos
De tu colección, del álbum
Del álbum de indiana jones (oh indiana)
No puedo soportar tu barbita de 4 dias
(oh indiana)
Suelta el látigo y veras
(oh indiana)
Dale gracias a dios que tienes gafas indiana (oh indiana)
Oh Indiana (oh Indiana)
Oh indiana, oh indiana, oh indiana
(oh indiana)
Oh Indiana, oh Indiana, oh Indiana
(oh Indiana)
Oh Indiana
(oh Indiana)



© LaCuerda.net · aviso legal · privacidad · contacto