Tablatura para Bajo de Héroes del Silencio: la Herida
Conexión · Inscripción
Letras y Acordes
Pantalla Completa
Imprimir
Versión Texto
Añadir Favorito
Otras Versiones

Mostrar Diagramas
Desfile Automático
Formato del Texto


la Herida(BAJ)

Héroes del Silencio

calidad:
hero0374
AUTOR: Heroes del Silencio
ALBUM: El Espiritu del Vino (1993)
Enviado por Marcos
INTRO 
La guitarra entra sola y despues del redoble de bateria entra el bajo:

                               
G|--------------------------|
D|----------5---/7h5(0)-------|
A|-0---5/7-5--------------0-|
E|--------------------------|

G|-------------------------------|
D|----------5--55---0--00--------|
A|-0--00--------------------0--0-|
E|-------------------------------|


VERSO 1
  C              Em
  Siempre es la misma funcion 
G|-------------------------------|
D|--------------------------------|
A|-3---3-3---3---7---7-7----7-----|
E|-------------------------------|

      Am             
  el mismo espectador
G|----------------------------|
D|----------------------------|
A|-0---0-0---0---0-0---0---0-0|
E|----------------------------|

  C          Em
  el mismo teatro 
G|---------------------|
D|---------------------|
A|3---3-3--3--7---7-7--|
E|---------------------|

             Am               
  en el que tantas veces actuo
G|-------------------------------|
D|-------------------------------|
A|0---0-0---0---0-0---0---0-0---0|
E|-------------------------------|

  C             Em
  y perder la razon 
G|---------------------|
D|---------------------|
A|3---3-3--3-3--7---7-7|
E|---------------------|

     Am
  en un juego tan real
G|----------------------------|
D|----------------------------|
A|-0---0-0---0---0-0---0---0-0|
E|----------------------------|

  C               Em   
  quizas fuera un error 
G|---------------------|
D|---------------------|
A|3---3-3--3-3--7---7-7|
E|---------------------|

   G                        Am
  curame esta herida por favor
G|-------------------------------------------------|
D|-5---5-5---5---5-5--5--5-5-----------14------12--|
A|---------------------------(0)-----12--12--10--10|
E|-------------------------------------------------|

VERSO 2
              Am 
  Que hay en dos amigos 
G|----------------------------|
D|----------------------------|
A|-0---0-0---0---0-0---0---0-0|
E|----------------------------|

     G 
  cuando despues de todo
G|----------------------------|
D|----------------------------|
A|----------------------------|
E|-3---3-3---3---3-3---3---3-3|

   F
  parecen perdidos 
G|----------------------------|
D|----------------------------|
A|----------------------------|
E|-1---1-1---1---1-1---1---1-1|

       Am
  y prefieren a otros?
G|-------------------|
D|-------------------|
A|-0---0-0---0---0-0-|
E|-------------------|
     
     Am
  Que dan lerdas manos 
G|-------------------|
D|-------------------|
A|-0---0-0---0---0-0-|
E|-------------------|

     G
  ignorando lo dado
G|-------------------|
D|-------------------|
A|-------------------|
E|-3---3-3---3---3-3-|

      F
  si antano se estrecharon 
G|-------------------------|
D|-------------------------|
A|-------------------------|
E|-1---1-1---1---1-1---1--1|

         Am
  ahora estan enganados?
G|-------------------|
D|-------------------|
A|-0---0-0---0---0-0-|
E|-------------------| 
        Am
  que les hizo alejarse 
G|-------------------|
D|-------------------|
A|-0---0-0---0---0-0-|
E|-------------------|

      G
 de su orilla intranquila
G|-------------------|
D|-------------------|
A|-------------------|
E|-3---3-3---3---3-3-|

F
tan siquiera un instante 
G|-------------------------|
D|-------------------------|
A|-------------------------|
E|-1---1-1---1---1-1---1--1|

Am
piensan en esos dias?
G|-------------------|
D|-------------------|
A|-0---0-0---0---0-0-|
E|-------------------|

VERSO 1
  C              Em
  Siempre es la misma funcion 
G|-------------------------------|
D|--------------------------------|
A|-3---3-3---3---7---7-7----7-----|
E|-------------------------------|

      Am             
  el mismo espectador
G|----------------------------|
D|----------------------------|
A|-0---0-0---0---0-0---0---0-0|
E|----------------------------|

  C          Em
  el mismo teatro 
G|---------------------|
D|---------------------|
A|3---3-3--3--7---7-7--|
E|---------------------|

             Am               
  en el que tantas veces actuo
G|-------------------------------|
D|-------------------------------|
A|0---0-0---0---0-0---0---0-0---0|
E|-------------------------------|

  C             Em
  y perder la razon 
G|---------------------|
D|---------------------|
A|3---3-3--3-3--7---7-7|
E|---------------------|

     Am
  en un juego tan real
G|----------------------------|
D|----------------------------|
A|-0---0-0---0---0-0---0---0-0|
E|----------------------------|

  C               Em   
  quizas fuera un error 
G|---------------------|
D|---------------------|
A|3---3-3--3-3--7---7-7|
E|---------------------|

   G                        Am
  curame esta herida por favor
G|-----------------------------------------------------|
D|-5---5-5---5---5-5--5--5-5-------(5)---(0)-----------|
A|---------------------------(0)-----------------------|
E|---------------------------------------------55-33-55|

VERSO 3
             Am
Siempre he preferido 
G|----------------------------|
D|----------------------------|
A|-0---0-0---0---0-0---0---0-0|
E|----------------------------|

    G
  un beso prolongado
G|-------------------|
D|-------------------|
A|-------------------|
E|-3---3-3---3---3-3-|

        F
  aunque sepa que miente 
G|-------------------------|
D|-------------------------|
A|-------------------------|
E|-1---1-1---1---1-1---1--1|

        Am
  aunque sepa que es falso
G|----------------------------|
D|----------------------------|
A|-0---0-0---0---0-0---0---0-0|
E|----------------------------|

       Am
  Que demonios ocurre 
G|----------------------------|
D|----------------------------|
A|-0---0-0---0---0-0---0---0-0|
E|----------------------------|

     G
  cuando miradas no se encuentran
G|-----------------------------|
D|-----------------------------|
A|-----------------------------|
E|-3---3-3---3---3-3---3---3-3-|

  F
  la pelea de gallos 
G|-------------------------|
D|-------------------------|
A|-------------------------|
E|-1---1-1---1---1-1---1--1|

        Am
  se admiten apuestas
G|-------------------|
D|-------------------|
A|-0---0-0---0---0-0-|
E|-------------------|

          Am
Quien busco el abrigo 
G|-------------------|
D|-------------------|
A|-0---0-0---0---0-0-|
E|-------------------|

      G
  en algun otro lugar
G|-------------------|
D|-------------------|
A|-------------------|
E|-3---3-3---3---3-3-|

      F
  es posible que el frio 
G|-------------------------|
D|-------------------------|
A|-------------------------|
E|-1---1-1---1---1-1---1--1|

   Am
  venga con la edad
G|-------------------|
D|-------------------|
A|-0---0-0---0---0-0-|
E|-------------------|

VERSO 1
  C              Em
  Siempre es la misma funcion 
G|-------------------------------|
D|--------------------------------|
A|-3---3-3---3---7---7-7----7-----|
E|-------------------------------|

      Am             
  el mismo espectador
G|----------------------------|
D|----------------------------|
A|-0---0-0---0---0-0---0---0-0|
E|----------------------------|

  C          Em
  el mismo teatro 
G|---------------------|
D|---------------------|
A|3---3-3--3--7---7-7--|
E|---------------------|

             Am               
  en el que tantas veces actuo
G|-------------------------------|
D|-------------------------------|
A|0---0-0---0---0-0---0---0-0---0|
E|-------------------------------|

  C             Em
  y perder la razon 
G|---------------------|
D|---------------------|
A|3---3-3--3-3--7---7-7|
E|---------------------|

     Am
  en un juego tan real
G|----------------------------|
D|----------------------------|
A|-0---0-0---0---0-0---0---0-0|
E|----------------------------|

  C               Em   
  quizas fuera un error 
G|---------------------|
D|---------------------|
A|3---3-3--3-3--7---7-7|
E|---------------------|

   G                        
  curame esta herida por favor
G|-----------------------------|
D|-5---5-5---5---5-5--5--5-5---|
A|-----------------------------|
E|-----------------------------|

SOLO 
G|-----------------------------|(x2)
D|-----------------------------|
A|-----------------------------|
E|-5-555--3-333--1-111-5---(5)-|

VERSO 1 (+ rapido)

SOLO 
G|-----------------------------|(x6)
D|-----------------------------|
A|-----------------------------|
E|-5-555--3-333--1-111-5---(5)-|
VERSO 1 (+ rapido)

==========================================================
Alli esta la rolilla..es toda..solo pongale unos arreglitos y suena muy bien....manden TABS DE BAJO!!!!
Este fichero es trabajo propio de su transcriptor y representa su interpretación personal de la canción. El material contenido en esta página es
para exclusivo uso privado, por lo que se prohibe su reproducción o retransmisión, así como su uso para fines comerciales.

© LaCuerda.net · Aviso Legal · Privacidad