Acordes de Guitarra » H »Héroes del Silencio » Flor Venenosa (Tab)

Flor Venenosa
Héroes del Silencio

Letras, Acordes y Tabs para Guitarra, Bajo y Ukulele

  • INTRO [Dm F C G] x 2
    
    
    Dm            F               C    G
    No encuentro palabras para decirlo    
    Dm           F
    que a veces siento    
                 C     G
    que el pensamiento    
             Dm           F    C      G  [Dm F C G] x 3
    es un idioma de signos... sin sentido   
    
    
    Dm             F                   C   G
    No siempre entiendo que sucede conmigo    
    Dm     F       C  
    zarandeandome voy     
        G      Dm   F
    hasta que caigo   
    C        G        Dm  F  C  G  [Dm F C F] x 2
    
  •     Dm               Fma7            C                C 
    
    e|---------------------------------------------------------0--------
    B|-------3----------------1-------------1----------------------1----
    G|-----------2----------------2--------------0--------------------0-
    D|---0----------------3-------------------------------2-------------
    A|-----------------------------------3------------------------------
    E|------------------------------------------------------------------
    
        Dm                Fma7            C                C
    e|---------------------------------------------------------0--------
    B|-------3-----------------1--------------1-------------1------1----
    G|------------2----------------2--------------0-------------------0-
    D|---0-----------------3-----------------------------2--------------
    A|------------------------------------3-----------------------------
    E|------------------------------------------------------------------
    
    *primera y segunda guitarra tocan los acordes
    
    Dm             F              C     G
    
  •     Dm        F             C        G
    e|-----------------------------------------------|
    B|-----3-------------1---------1----------1------|
    G|-------2-------------2---------0----------0----|
    D|--0---------0h2h3------------------0h2------2--|  x2
    A|--------------------------3--------------------|
    E|-----------------------------------------------|
    
    
      VERSO 1 (..no encuentro palabras para decirlo...) 
    
      (en los versos siempre se efectúan estos ragueos) 
    
        Dm   F    C    G
    e|--5----5----8----7--|
    B|--6----6----8----8--|
    G|--7----5----9----7--|
    D|--7----7----10------|  x4
    A|--5----8----10------|
    E|-------5------------|
    
  •      Dm        F             C        G
    e|-----------------------------------------------|
    B|-----3-------------1---------1----------1------|
    G|-------2-------------2---------0----------0----|
    D|--0---------0h2h3------------------0h2------2--|
    A|--------------------------3--------------------|
    E|-----------------------------------------------|
    
         Dm        F             C        G
    e|--------------------------------------0--------|
    B|-----3-------------1---------1------1---1------|
    G|-------2-------------2---------0----------2-0--|
    D|--0---------0h2h3------------------------------|
    A|--------------------------3--------------------|
    E|-----------------------------------------------|
    
      VERSO 1
    
        No encuentro palabras para decirlo...
    
    
  • DESDE EL PRINCIPIO EL BAJEO DE LA ROLA ES ASI:
    
    INTRO:
    G||---0--0-3-3----320----0--0-3-3-----3--2--||
    D||------------3-3---3-------------3-3------||
    A||-----------------------------------------||
    E||-----------------------------------------||
    
    Y EL CORO COMIENZA EN C DONDE DICE 'TAN SOLO DEJAME 
    ESTAR...'
    TAN SOLO DEJAME ESTAR
    UN MOMENTO ASOLAS MMM...
    G||-----------------------------------||
    D||-----------------------------------||
    A||---3333333h8-8-1-1-3-3333h8-8-1-1-3||
    E||-----------------------------------||
    
    TAN SOLO DEJAME EN PAZ 
    ESTE INTERVALO DE TIEMPO...
    G||-----------------------------------||
    D||-----------------------------------||
    A||---33321-1-3-3h8-0-1-1-3-3h8-------||
    E||-----------------------------------||
    
    QUIZAS EN ESTE PRECIOSO MOMENTO
    PUEDA SER... COMO TU
    G||-----------------------------------||
    D||----------------------30-----------||
    A||---888-0-1-1-3-3-5-55---3-333------||
    E||-----------------------------------||
    
    Y VUELVE DESDE 
  • +
    ¡Colabora con nosotros!
    Envíanos tu versión de esta canción

Letra de Flor Venenosa
No encuentro palabras para decirlo
que a veces siento
que el pensamiento
es un idioma de signos... sin sentido
No siempre entiendo que sucede conmigo
zarandeandome voy
hasta que caigo
terriblemente borracho
Tan solo dejame estar
un momento a solas
tan solo dejame en paz
este intervalo de tiempo
que siempre he estado perdiendo
quizas en este precioso momento
pueda ser... (como tu.) x 4
Prefiero explotar de tanto alcohol
con tu jarabe de flor venenosa
y vender a una madre
por otra copa.
Tan solo dejame estar
un momento a solas
tan solo dejame en paz
este intervalo de tiempo
que siempre he estado perdiendo
quizas en este precioso momento
pueda ser... (como tu.) x 4
Tan solo dejame estar
un momento a solas
tan solo dejame en paz
este intervalo de tiempo
que siempre he estado perdiendo
quizas en este precioso momento
pueda ser... como tu
Tan solo dejame estar
un momento a solas
Tan solo dejame estar
un momento a solas




[Flor Venenosa chords][Flor Venenosa cifra]
© LaCuerda.net · aviso legal · privacidad · es · en · pt · contacto