Acordes de Guitarra » H »Héroes del Silencio » Hechizo (Tab)

Hechizo
Héroes del Silencio

Letras, Acordes y Tabs para Guitarra, Bajo y Ukulele

  • Cmaj7(E bass)....    Em
    
    
    1)C                                                
       no es la primera vez 
                      Em
       que me encuentro tan cerca
    
       de conocer la locura,
    
                     C
       y ahora por fin, ya se que es
                      Em   
       no poder controlar
    
       ni siquiera tus brazos
    
    
                       Am
       y sientes que estan
    
  • (C  Em)
    
    Intro y Verso en “C”    Intro y Verso en “Em”
    -----------                 -----------
    -----------                 -----------
    -----------                 -----------
    ----5--5-5-                 ----5--5-5-
    ---3--3----                 ---7--7----
    -----------                 -----------
    
    
    Verso.
    C                                       Em
      No es la primera vez que me encuentro tan cerca
                                   C
    de conocer la locura, y ahora por fin, ya sé qué es
                 Em
    no poder controlar ni siquiera tus brazos
               F        Am                 G
    y sientes que están    completamente agotados
    
  • E||-----------------------|          |-----------------------|
    B||-----------------------|          |-----------------------|
    G||-----------------------|          |-----------------------|
    D||-----5-------5----5----|          |-----5-------5----5----|
    A||--3-------3------------|          |--7-------7------------|
    E||-----------------------|          |-----------------------|
    
    Despues empieza el verso: 
                             No es la primera vez.....                                               
    |-----------------------|-----------------------|-----------------------|
    |-----------------------|-----------------------|-----------------------|
    |-----------------------|-----------------------|-----------------------|
    |-----5-------5----5----|-----5-------5----5----|-----5-------5----5----|
    |--3-------3------------|--3-------3------------|--3-------3------------|
    |-----------------------|-----------------------|-----------------------|
                                                                            
    tan cerca.........                                                                       
    -----------------------|-----------------------|-----------------------|
    -----------------------|-----------------------|-----------------------|
    -----------------------|-----------------------|-----------------------|
    
  • E||-----------------------|          |-----------------------|
    B||-----------------------|          |-----------------------|
    G||-----------------------|          |-----------------------|
    D||-----5-------5----5----| x12      |-----5-------5----5----| x4
    A||--3-------3------------|          |--7-------7------------|
    E||-----------------------|          |-----------------------|
    
    Verso 1:
    |-----------------------|-----------------------|-----------------------|
    |-----------------------|-----------------------|-----------------------|
    |-----------------------|-----------------------|-----------------------|
    |-----5-------5----5----|-----5-------5----5----|-----5-------5----5----|
    |--3-------3------------|--3-------3------------|--3-------3------------|
    |-----------------------|-----------------------|-----------------------|
    
    |-----------------------|
    |-----------------------|
    |-----------------------|
    |-----5-------5----5----|
    |--3-------3------------|
    
  • El bajo entra a los 16":
    
    
    INTRO:
    
    G|------------------------------------
    D|------------------------------------
    A|--777777777777777-------------------
    E|------------------------------------
    
    VERSO:
    
    G|------------------------------------
    D|------------------------------------
    A|--333333333333333--777777777777777-
    E|------------------------------------
    
      |------------------------------------
      |------------------------------------
      |--333333333333333--777777777777777-
      |------------------------------------
    
    
    PUENTE (sienten que estan...):
    
    G|--------------
    D|--------------
    A|--00--00--00--
    E|----55--55--55
    
     |---------------------------------
     |---------------------------------
     |--10101010101010101010/7777777777
     |---------------------------------
    
    
    ESTRIBILLO (vamonos de esta habitacion...):
    
    G|------------------------------------------
    D|------------------------------------------
    A|--00--00--3333333333-----------7777777777-
    E|----55--55----------3333333333------------
    
     |--------
  • +
    ¡Colabora con nosotros!
    Envíanos tu versión de esta canción
  • Tutorial
    Como tocar Hechizo; How to play Hechizo; Héroes del Silencio
    8:56

Letra de Hechizo
1)C
no es la primera vez
que me encuentro tan cerca
de conocer la locura,
y ahora por fin, ya se que es
no poder controlar
ni siquiera tus brazos
y sientes que estan
completamente agotados
y no entiendes por que
1)antes o despues, deberia intentarlo,
someterme a su hechizo, olvidando mentir
en otro nivel, no querer recordar
ni siquiera el pasado
que sientes que esta
completamente agotado
y no entiendes por que
2)
vamonos de esta habitacion
al espacio exterior
se nublan los ojos
todo de un mismo color
mientras todo da igual,
mientras toda da igual...
1)ganar o perder, se que nunca me importa,
lo que embruja es el riesgo
y no donde ir
y subes otro nivel, y no puedes llegar
ni siquiera a tocarlo.
y sientes que estas
completamente agotado,
y no entiendes por que
2)vamonos de esta habitacion
al espacio exterior
se nublan los ojos
todo de un mismo color
y, mientras,
2) vamonos de esta habitacion
al espacio exterior
se nublan los ojos
todo de un mismo color
mientras todo da igual
nueve, ocho, siete, seis, cinco, cuatro, tres, dos, uno...




[Hechizo chords][Hechizo cifra]
© LaCuerda.net · aviso legal · privacidad · es · en · pt · contacto