Acordes de Guitarra » H »Héroes del Silencio » la Espuma de Venus (Tab)

la Espuma de Venus
Héroes del Silencio

Letras, Acordes y Tabs para Guitarra, Bajo y Ukulele

  • INTRO [Am F Em(3)  Dm F G  Am F Em(3)  Dm F G]
    
        Am      F        Em
    En frío a flor de labio
            Am     Em         G
    boca de cosecha senos de clavel curvas 
      F                  Em                Am
    mieles y rincones de voces y cuchillos de saliva.
    
    
    Am G     F                Am G F
    Nade desnudo tu oleaje  
    
    Am      F              Em
    Ahora que el barco se hunde 
                        Am          Em
    y sólo tu puedes salvarme
                G            F
    y dudas de mis dudas de mis ritos
            Em                  Am
    
  •  1.  Am            F             Em
    e|--------------------------------------------------------|
    B|-------1---0h1-------1---0h1--------0------------0------|
    G|----------------------------------------0------------0--|
    D|--------------------------------------------------------|
    A|---0----------------------------------------------------|
    E|-----------------1-------------0------------------------|
    
    
     2.  Am            F             Em
    e|----------------------------------------0---------------|
    B|-------1---0h1-------1---0h1--------0-----------0-------|
    G|-----------------------------------------------------0--|
    D|--------------------------------------------------------|
    A|---0----------------------------------------------------|
    E|-----------------1-------------0------------------------|
    
    
     3.  Am            F             Em
    e|--------------------------------------------------------|
    
  •     Am               F             Em
    e|-----------------------------------------------------------|
    B|-------1----1---------1----1---------0------------0--------|
    G|----------4---2----------4---2------------0------------0---|
    D|----------------2--------------3---------------------------|
    A|---0-------------------------------------------------------|
    E|-------------------1--------------0-----------0------------|
    
        Am               F             Em
    e|-------------------------------------------0---------------|
    B|-------1----1---------1----1---------0------------0--------|
    G|----------4---2----------4---2-------------------------0---|
    D|----------------2--------------3---------------------------|
    A|---0-------------------------------------------------------|
    E|-------------------1--------------0-----------0------------|
    
    
        Am               F             Em
    e|-----------------------------------------------------------|
    B|-------1----1---------1----1---------0------------0--------|
    
  •                                                                 
    G||------------------|--------------------|--------------------|
    D||------------------|--------------------|--------------------|
    A||------------------|--3--------------3--|--3--------------3--|
    E||------------------|--------------------|--------------------|
    
    
                                                                   
    --------------------|--------------------|--------------------|
    --------------------|--2-----------------|--------------------|
    --2--------------2--|-----------------2--|--3--------------3--|
    --------------------|--------------------|--------------------|
    
    
                                                                   
    --------------------|--------------------|--------------------|
    --------------------|--------------------|--2-----------------|
    --3--------------3--|--2--------------2--|-----------------2--|
    --------------------|--------------------|--------------------|
    
    
            
  • +
    ¡Colabora con nosotros!
    Envíanos tu versión de esta canción

Letra de la Espuma de Venus
En frío a flor de labio
boca de cosecha senos de clavel curvas
mieles y rincones de voces y cuchillos de saliva.
Nade desnudo tu oleaje
Ahora que el barco se hunde
y sólo tu puedes salvarme
y dudas de mis dudas de mis ritos
de mis ruinas entre siempre y jamas
Nade desnudo tu oleaje
La espuma de venus la fruta más escasa
que quiso ordeñar
el zahorí buscando agua
Escribillo
La ficción es y será
mi única realidad (2)
Artista de mi pecado
aprendí de memoria
la geografía de tu centro de azucar
y de acero Espuma de Venus
Nade desnudo tu oleaje
Perfume inmaterial cobijo y principio
el audillo vertical
como respuesta a tus prodigios
Escribillo
La ficción es y será
mi única realidad (2)
Con el disfraz sin estrenar
di el salto a lo fugaz
La Ficción es y será
la unica realidad




[la Espuma de Venus chords][la Espuma de Venus cifra]
© LaCuerda.net · aviso legal · privacidad · es · en · pt · contacto