Acordes de Guitarra » H »Héroes del Silencio » En Brazos de la Fiebre (Tab)

En Brazos de la Fiebre
Héroes del Silencio

Letras, Notas, Punteos, Tablaturas y Acordes de Guitarra (Tabs & Chords)

  • Letra y Acordes
    Intro: Em .Bm F#m D
           C .G D
    1)
    Em
    Con los brazos de la fiebre
              Bm        F#m
    que aún abarcan mi frente
              D
    lo he pensado mejor
              C          G                D
    y desataré las serpientes de la vanidad
           Em
    el paraíso es escuchar
         Bm           F#m
    el miedo es un ladrón
             D
    al que no guardo rencor,
           C            G
    y el dolor es un ensayo
           D
    
  • Letra y Acordes
    Em          
    con los brazos de la fiebre
              Bm          
    que aún abarcan mi frente
              D
    lo he pensado mejor
                        G                D          
    y desataré las serpientes de la vanidad
           Em
    el paraíso es escuchar
         Bm
    el miedo es un ladrón
                       D
    al que no guardo rencor, 
            G
    y el dolor es un ensayo
           D
    de la muerte.
    
    
    
  • Tablatura
       Em       Bm             F            Am
    e|--------------------------------------------------------|
    B|--------------------------------------------------------|
    G|-9------------------------------------------------------|
    D|-9----------------------------7--7----------------------|
    A|-7-7-7-7-7h9~--9-7-5--7/8~--8---8--8-7~--10-9h10p9--7-5-|
    E|--------------------------------------------------------|
    
       Em       Bm            F           Am
    e|---------------------------------------------------|
    B|---------------------------------------------------|
    G|-9-------------------------------------------------|
    D|-9-------------------------------------------------|
    A|-7-7-7-7-7h9~--9-7-5--7/8~-8-7p5-------------5-7---|
    E|----------------------------------8-7--5-7-8-------|
    
       Em       Bm             F          Am
    e|-----------------------------------------------------------|
    B|-----------------------------------------------------------|
    G|-9---------------------------------------------------------|
    
  • Tablatura
        Em      Bm           F                 Am
    e|------------------------------------------------------------|
    B|------------------------------------------------------------|
    G|--------------------------------2---2---------0-------------|
    D|--2---2-2-2h4~~--4-2-0-2h3~---3---3---3--2~------4h5-4-2-0--|
    A|--2---------------------------------------------------------|
    E|--0---------------------------------------------------------|
    
    
        Em      Bm           F              Am
    e|--------------------------------------------------------|
    B|--------------------------------------------------------|
    G|--------------------------------------------------------|
    D|--2---2-2-2h4~~--4-2-0-2h3~---3--2p0--------------0-2---|
    A|--2-----------------------------------3--2--0-2-3-------|
    E|--0-----------------------------------------------------|
    
    
        Em      Bm           F                    Am
    e|---------------------------------8-9h10-8-------------------|
    
  • Tablatura
                Em                          Bm     F#m
    e|-----------0--------------------------2-------2-------------|
    B|-----------0--------------------------3-------2-----2-------|
    G|---0-------0-----0-----------0--------4-------2-2h4---4-2-0-|
    D|--0--4-0---2---------4---2--0--4-0----4---4---4-------------|
    A|-2-------2-2-2-2---2---2---2-------2--2-2---2-4-------------|
    E|-----------0----------------------------------x-------------|
    
     D             C        G     D
    -2-------2-2-2----------3-3---2-2---|
    -3-------3-3-3-------5--3--3--3---3-|
    -2-------2-2-2-----5----0---0-2-----|
    -0-0-0-0-0-0-0---5------0-----0-----|
    ---------------3--------x-----------|
    ------------------------x-----------|
    
    Verso:
                Em                          Bm     F#m
    e|-----------0--------------------------2-------2-------------|
    B|-----------0--------------------------3-------2-----2-------|
    
  • +
    ¡Colabora con nosotros!
    Envíanos tu versión de esta canción

Letra de En Brazos de la Fiebre
1)
Con los brazos de la fiebre
que aún abarcan mi frente
lo he pensado mejor
y desataré las serpientes de la vanidad
el paraíso es escuchar
el miedo es un ladrón
al que no guardo rencor,
y el dolor es un ensayo
de la muerte.
en la piel de una gota
mis alas volvieron rotas
y entre otras cosas ya no escriben con tinta de luz
el paraíso deviene en infierno
y luego se queja
y sin que nadie se mueva,
¿quién lo arregla?
*(El coro se repite 2 veces)
1)
Gestado en mis escombros
De pastoso paladar
El disparate en el caos, me derroto
Con palabras de alabanza.
en la piel de una gota
mis alas volvieron rotas
y entre otras cosas ya no escriben con tinta de luz
el paraíso deviene en infierno
y luego se queja
y sin que nadie se mueva,
¿Quién lo arregla?
*(El coro se repite 2 veces)
El solo de esta canción va en 8 tiempos sobre Em Bm F Em
Esta es la verdadera versión de En Brazos de la Fiebre.
Para dudas o comentarios mi correo es Ghost_iya@hotmail.com



© LaCuerda.net · Aviso Legal · Privacidad