Tablatura para Bajo de Héroes del Silencio: Heroe de Leyenda
Conexión · Inscripción
Letras y Acordes
Pantalla Completa
Imprimir
Versión Texto
Añadir Favorito
Otras Versiones

Mostrar Diagramas
Desfile Automático
Formato del Texto


Heroe de Leyenda(BAJ)

Héroes del Silencio

calidad:
hero0295
AUTOR: Pedro Andreu, Joaquin Cardiel, E. De Landazuri Ortiz, Janet Valdivia
ALBUM: El Mar No Cesa (1988)
Enviado por Omar
Dato: Dom, 12 agosto, 9:53:55 AM
Por: Omar Vidal

  Héroe de Leyenda - Bajo

Héroes del Silencio
Música: P. Andreu, E. Bunbury, J. Cardiel & J. Valdivia
Álbum: El mar no cesa (1988)


  INTRO

     Gm                       D#                     D 
G|--------------------------|----------------------|---------------------------|
D|--------------------------|--------------8-8-6-5-|---------------------------|
A|--------------------3/5-5-|-6---6-6--6-----------|-5---5-5---5---5--3\1-3-5--|
E|---3---3-3---3---3--------|----------------------|---------------------------|
                           
   Gm
 |-------------------------|
 |-------------------------|
 |-------------------------|
 |-3---3-3---3--3--6\3-3\1-|


  VERSO 1 (...siempre en la oscuridad...)

     Gm                       D#                    D 
G|--------------------------|---------------------|----------------------|
D|--------------------------|---------------8-6-5-|----------------------|
A|--------------------3/5-5-|-6---6-6--6--6-------|-5---5-5---5---5-5-0--|
E|---3---3-3---3---3--------|---------------------|----------------------|
                                        
                                 cuando repitas verso toca la última parte así:
   Gm                              Gm
 |-------------------------|     |----------------------|
 |-------------------------| x2  |----------------------|
 |-------------------------|     |----------------------|
 |-3---3-3---3--3--6\3-3/1-|     |-3---3-3---3---3-3--5-|


  PUENTE (..en sus ojos apagados...)

     Bm                        Em
G|---------------------------|-------------------------|
D|---------------------------|-------------9-----------|
A|---2---2-2---2---2--0h2--5-|-7---7-7---7----3h5-3h5--|
E|---------------------------|-------------------------|

     Bm                        Em
 |---------------------------|-------------------------|
 |---------------------------|-------------9-9--7--5---|
 |---2---2-2---2---2--0h2--5-|-7---7-7---7-------------|
 |---------------------------|-------------------------|


  ESTRIBILLO (...el héroe de leyenda...)

    A                      F#                        G
G|-----------------------|-------------------------|-----------------------|
D|-----------------------|-------------------------|-----------------------|
A|--0---0-0---0---0-0----|-------------------------|-----------------------|
E|---------------------0-|-2-2---2--2---2-2-2p0--2-|-3---3-3---3---3-3-0---|


  RIFF 

     Am                      F                        E               
G|-------------------------|----------------5-5-3-2-|--------------------------|
D|-------------------------|-3---3-3---3------------|-2---2-2---2---2-------2--|
A|---0---0-0---0---0-5/7-7-|------------------------|-----------------5p3-5----|
E|-------------------------|------------------------|--------------------------|

    Am
 |--------------------------|
 |--------------------------|
 |--0---0-0---0---0-3p0-----|
 |----------------------5\3-|


  VERSO 2  (...encerrado en el tiempo...)

     Am                      F                        E
G|-------------------------|----------------5-5-3-2-|----------------------|
D|-------------------------|-3---3-3---3------------|-2---2-2---2---2-2----|
A|---0---0-0---0---0-5/7-7-|------------------------|-------------------2--|
E|-------------------------|------------------------|----------------------|

    Am
 |--------------------------|
 |--------------------------|  x2
 |--0---0-0---0---0-3p0-----| 
 |----------------------5\3-|



  PUENTE

  
  ESTRIBILLO


  SOLO

     Am                      F                        E
G|-------------------------|----------------5-5-3-2-|--------------------------|
D|-------------------------|-3---3-3---3------------|-2---2-2---2---2-------2--|
A|---0---0-0---0---0-5/7-7-|------------------------|-----------------5p3-5----|
E|-------------------------|------------------------|--------------------------|

    Am
 |--------------------------|
 |--------------------------|   x2
 |--0---0-0---0---0-3p0-----|
 |----------------------5\3-|


   
  PUENTE

 
  ESTRIBILLO     (repite puente y estribillo)


  OUTRO  

     Am                      F                        E
G|-------------------------|----------------5-5-3-2-|----------------------|
D|-------------------------|-3---3-3---3------------|-2---2-2---2-------2--|
A|---0---0-0---0---0-5/7-7-|------------------------|-------------5p3-5----|
E|-------------------------|------------------------|----------------------|
        
    Am                            cuando repitas      Am
 |--------------------------|     toca la parte    |------------------------------|
 |--------------------------| 2x  final (Am) así:  |--------------7--5--3---------|
 |--0---0-0---0---0-3p0-----|                      |--0---0-0---0---------2-3-2-0-|
 |----------------------5\3-|                      |------------------------------|



Si tienes algunos comentarios, dudas, correciones, etc. hazmelo saber.

Omar -
  - Vidal    ometal666@hotmail.com            Viva el Rock | Paz
Este fichero es trabajo propio de su transcriptor y representa su interpretación personal de la canción. El material contenido en esta página es
para exclusivo uso privado, por lo que se prohibe su reproducción o retransmisión, así como su uso para fines comerciales.

© LaCuerda.net · Aviso Legal · Privacidad