Acordes de Guitarra » H »Héroes del Silencio » Días De Borrasca (Tab)

Días De Borrasca
Héroes del Silencio

Letras, Acordes y Tabs para Guitarra, Bajo y Ukulele

  •        Am              F
    Al inocente lo linchan
       Am           D#
    al son de la calumnia
              Am
    y en la odisea del rencor
         F
    el gran inquisidor
        Am
    el hombre guarecido
       D#                       Am
    el hombre guarecido en el leal
           F            Am      D#
    leal cobijo de la soledad.
    
    Am                  F
    La corona se prende
         Am             D#
    despues de la victoria
        Am
    
  • INTRO A
    
      A   C   Bb   x8
    
    
    INTRO B (tambien versos)
    
      A   F5  C5  D5     A   D#  D5
    
    
     VERSO 1
    
             A               F5  C5 
      al innocente lo linchan
    
      Gm  A          D#    
      al son de la calumnia
    
      D5       A
      en la odisea del rencor
    
  • |------------------------------------------------
    |------------------------------------------------
    |--------6h7p6-----------------------5-----------
    |----7----------7---------6------8-----5---------  x4
    |--7---7----------7-----7------7-----------------
    |5--------------------8------6-------------------
    
    Con distorsión
    |------------------------------------------------
    |------------------------------------------------
    |--------6h7p6-----------------------5-----------
    |----7----------7---------6------8-----5---------  x4
    |--7---7----------7-----7------7-----------------
    |5--------------------8------6-------------------
    
    después del intro x1
    |5--5--5----5--5-----------------1--1--1----3---3---
    |5--5--5----5--5-----------------1--1--1----3---3---
    |6--6--6----6--6-----------------2--2--2----4---4---
    |7--7--7----7--7--5--5--5--5-----3--3--3----5---5---
    
  •                                                        
                              
    guit. limpia                                                            
    E||-----------------------------|--------------------------|
    B||--------------2h3h2----------|--------------------1-----|
    G||--------2--------------0-----|--------0--------3-----0--|
    D||-----2-----------------------|-----2--------2-----------|
    A||--0--------0--------0-----0--|--3--------1--------------|
    E||-----------------------------|--------------------------|
    
    
                                                             
    -----------------------------|--------------------------|
    --------------2h3h2----------|--------------------1-----|
    --------2--------------0-----|--------0--------3-----0--|
    -----2-----------------------|-----2--------2-----------|
    --0--------0--------0-----0--|--3--------1--------------|
    -----------------------------|--------------------------|
    
    
                                                    
  •                                                                                
    G||------------------|------------------|------------------|------------------|
    D||------------------|------------------|------------------|------------------|
    A||------------------|------------------|------------------|------------------|
    E||------------------|------------------|------------------|------------------|
    
    
                                                                     
    ------------------|------------------|--------------------------|
    ------------------|------------------|--------------------------|
    ------------------|------------------|--0--0--0--0--0--0--0--0--|
    ------------------|------------------|--------------------------|
    
    
                                                          
    --------------------------|--------------------------|
    --------------------------|--------------------------|
    --------------------------|--0--0--0--0--0--0--0--0--|
    --1--1--1--1--1--1--1--1--|-
  • +
    ¡Colabora con nosotros!
    Envíanos tu versión de esta canción

Letra de Días De Borrasca
Al inocente lo linchan
al son de la calumnia
y en la odisea del rencor
el gran inquisidor
el hombre guarecido
el hombre guarecido en el leal
leal cobijo de la soledad.
La corona se prende
despues de la victoria
esa no sera la historia
de mi generacion
el placer es un alivio
el orgasmo un abismo
contra las farsas,
farsas de control,
de la gente mayor
como si aquel instante
fuera a ser el primero
del resto de sus vidas.
Dias de borrasca
vispera de resplandores
y cuando el futuro es improbable
cuando el pensar no es suficiente
y cuando aquello que en teoria
no puede, no
que haya sucedido.
Como si aquel instante
fuera ser el primero
del resto de sus vidas
dias de borrasca
vispera de resplandores.
Como si aquel instante
fuera ser el primero
del resto de sus vidas
dias de borrasca
vispera de resplandores.




[Días De Borrasca chords][Días De Borrasca cifra]
© LaCuerda.net · aviso legal · privacidad · es · en · pt · contacto