Tablatura para Bajo de Héroes del Silencio: Heroe de Leyenda
Conexión · Inscripción
Letras y Acordes
Pantalla Completa
Imprimir
Versión Texto
Añadir Favorito
Otras Versiones

Mostrar Diagramas
Desfile Automático
Formato del Texto


Heroe de Leyenda(BAJ)

Héroes del Silencio

calidad:
hero0292
AUTOR: Pedro Andreu, Joaquin Cardiel, E. De Landazuri Ortiz, Janet Valdivia
ALBUM: El Mar No Cesa (1988)
Enviado por semen, basado en Omar
INTRO
   Gm                  D#                 D
G|-------------------|-----------------|-------------------|
D|-------------------|---------8-8-6-5-|-------------------|
A|----------------1/6|--66--6----------|-5--55--5--56p5—---|
E|-3--33--3--3-1H3---|-----------------|---------------6p5-|

  Gm
 |-------------------|
 |-------------------|
 |-----------------5-|
 |3--33--3--3-1h3/6--|


  VERSO 1 (...siempre en la oscuridad...)

   Gm                  D#                  D
G|-------------------|-----------------|-------------------|
D|-------------------|----------88-6-5-|-------------------|
A|----------------1/6|--66--6--6-------|-5--55--5—56p5-—---|
E|-3--33--3--3-1H3---|-----------------|---------------6p5-|

  Gm
 |-------------------|
 |-------------------|
 |-----------------5-|
 |3--33--3--3-1h3/6--|

  (...el silencio lo es todo...)

   Gm                  D#                 D
G|-------------------|-----------------|-------------------|
D|-------------------|---------8-8-6-5-|-------------------|
A|----------------1/6|--66--6----------|-5--55--5—56p5-—---|
E|-3--33--3--3-1H3---|-----------------|---------------6p5-|

   Gm
 |--------------------|
 |--------------------|
 |--------------------|
 |3—-33--3--3-1h3-3/5-|

PUENTE  (En sus ojos apagados...)
  Bm                Em               Bm                Em
G|-----------------|----------9-9-7-|-----------------|-----------------|
D|-----------------|-----------9-9--|-----------------|----------999-7-5|
A|----------------5|-7--77--7-------|----------------5|-7--77--7--------|
E|-7--77--7--7-5h7-|----------------|-7--77--7--7-5h7-|-----------------|

   A                F#               Gm
G|-----------------|----------------|--------------------|
D|-----------------|----------------|--------------------|
A|-----------------|----------------|--------------------|
E|-5--55--5--55--0-|-2--22--2--20h2-|2h3-3--33--3--33--0-|


RIFF
  Am                  F
G|-------------------|--------------------|
D|-------------------|-------10-10-10-8-7-|
A|----------------3-8|-88--8--------------|
E|-5--55--5—5-3h5----|--------------------|

  E                   Am
G|-------------------|-------------------|
D|-------------------|-------------------|
A|-7--77--7--78p7----|-----------------7-|
E|---------------8p7-|-5--55--5—5-3h5/8--|

Verso 2 (…enterrado en el tiempo)
  Am                  F
G|-------------------|------------------|
D|-------------------|---------1010-8-7-|
A|----------------3-8|-88--8--8----------|
E|-5--55--5—5-3h5----|------------------|

  E                   Am
G|-------------------|-------------------|
D|-------------------|-------------------|
A|-7--77--7--78p7----|-----------------7-|
E|---------------8p7-|-5--55--5—5-3h5/8--|

(para escapar de su celda)
Am                  F
G|-------------------|------------------|
D|-------------------|--------10-10-8-7-|
A|----------------3-8|-88--8------------|
E|-5--55--5—5-3h5----|------------------|

  E                   Am
G|-------------------|-------------------|
D|-------------------|-------------------|
A|-7--77--7--78p7----|-------------------|
E|---------------8p7-|-5--55--5—5-1h3-3/5|

PUENTE  (En sus ojos apagados...)
  Bm                Em               Bm                Em
G|-----------------|----------9-9-7-|-----------------|-----------------|
D|-----------------|-----------9-9--|-----------------|----------999-7-5|
A|----------------5|-7--77--7-------|----------------5|-7--77--7--------|
E|-7--77--7--7-5h7-|----------------|-7--77--7--7-5h7-|-----------------|

   A                F#               Gm
G|-----------------|----------------|--------------------|
D|-----------------|----------------|--------------------|
A|-----------------|----------------|--------------------|
E|-5--55--5--55--0-|-2--22--2--20h2-|2h3-3--33--3--33--0-|

2do RIFF
  Am                  F
G|-------------------|--------------------|
D|-------------------|-------10-10-10-8-7-|
A|----------------3-8|-88--8--------------|
E|-5--55--5—5-3h5----|--------------------|

  E                   Am
G|-------------------|-------------------|
D|-------------------|-------------------|
A|-7--77--7--78p7----|-----------------7-|
E|---------------8p7-|-5--55--5—5-3h5/8--|

  Am                  F
G|-------------------|------------------|
D|-------------------|---------1010-8-7-|
A|----------------3-8|-88--8--8----------|
E|-5--55--5—5-3h5----|------------------|

  E                   Am
G|-------------------|-------------------|
D|-------------------|-------------------|
A|-7--77--7--78p7----|-------------------|
E|---------------8p7-|-5--55--5—5-1h3-3/5|

PUENTE  (En sus ojos apagados...)
  Bm                Em               Bm                Em
G|-----------------|----------9-9-7-|-----------------|-----------------|
D|-----------------|-----------9-9--|-----------------|----------999-7-5|
A|----------------5|-7--77--7-------|----------------5|-7--77--7--------|
E|-7--77--7--7-5h7-|----------------|-7--77--7--7-5h7-|-----------------|

   A                F#               Gm
G|-----------------|----------------|--------------------|
D|-----------------|----------------|--------------------|
A|-----------------|----------------|--------------------|
E|-5--55--5--55--0-|-2--22--2--20h2-|2h3-3--33--3--33--5-|

Bm                Em               Bm                Em
G|-----------------|----------9-9-7-|-----------------|-----------------|
D|-----------------|-----------9-9--|-----------------|----------999-7-5|
A|----------------5|-7--77--7-------|----------------5|-7--77--7--------|
E|-7--77--7--7-5h7-|----------------|-7--77--7--7-5h7-|-----------------|

   A                F#               Gm
G|-----------------|----------------|--------------------|
D|-----------------|----------------|--------------------|
A|-----------------|----------------|--------------------|
E|-5--55--5--55--0-|-2--22--2--20h2-|2h3-3--33--3--33--0-|

Salida
  Am                  F
G|-------------------|--------------------|
D|-------------------|-------10-10-10-8-7-|
A|----------------3-8|-88--8--------------|
E|-5--55--5—5-3h5----|--------------------|

  E                   Am
G|-------------------|-------------------|
D|-------------------|-------------------|
A|-7--77--7--78p7----|-----------------7-|
E|---------------8p7-|-5--55--5—5-3h5/8--|

  Am                  F
G|-------------------|------------------|
D|-------------------|---------1010-8-7-|
A|----------------3-8|-88--8--8---------|
E|-5--55--5—5-3h5----|------------------|

  E                   Am
G|-------------------|-----------------------|
D|-------------------|---------77-55---------|
A|-7--77--7--78p7----|---------------87------|
E|---------------8p7-|-5--55--5---------87-5-|
Este fichero es trabajo propio de su transcriptor y representa su interpretación personal de la canción. El material contenido en esta página es
para exclusivo uso privado, por lo que se prohibe su reproducción o retransmisión, así como su uso para fines comerciales.

© LaCuerda.net · Aviso Legal · Privacidad