Acordes de Guitarra » F »Fito & Fitipaldis » Antes de que cuente diez (Tab)

Antes de que cuente diez
Fito & Fitipaldis

Letras, Acordes y Tabs para Guitarra, Bajo y Ukulele

  • Intro:   F#m  E  Bm  A  E
    
    
               F#m
    Puedo escribir y no disimular
             E
    Es la ventaja de irse haciendo viejo
             Bm
    No tengo nada para impresionar
            A           E
    Ni por fuera ni por dentro.
    
    La noche en vela voy cruzando el mar
    Porque los sueños viajan con el viento
    Y en mi ventana sopla en el cristal
    Mira a ver si estoy despierto.
    
    
    Inter X 2: F#m A E
    
    
  • F#m  A  Bm  D  E
    
    
               F#m
    Puedo escribir y no disimular
             E
    es la ventaja de irse haciendo viejo
             Bm
    no tengo nada para impresionar
           A            E
    ni por fuera ni por dentro.
    
    
                F#m
    La noche en vela va cruzando el mar
               E
    porque los sueños viajan con el viento
               Bm
    y en mi ventana sopla en el cristal
           A            E
    
  • MIm  RE  LAm  SOL-RE
    
    1|---0-----------------|----0-----------------
    2|-3---3-0-------------|--3---3---------------
    3|---------0------(x4)-ó--------4------(x4)---
    4|-----------(4)-------|----------5-(4)-------   (la última nota sólo
    5|---------------------|----------------------    en la última vez)
    6|---------------------|----------------------
    
    
    [RASGUEOS]  (Al final de mim, RE y lam hacemos 2 rasgueos hacia abajo)
               MIm
    Puedo escribir y no disimular,
             RE
    es la ventaja de irse haciendo viejo.
             LAm
    No tengo nada para impresionar
            SOL          RE
    ni por fuera ni por dentro.
    
    
  • Bueno he aqui el solo de esta canción.
    Me lo he sacado de oído pero creo que esta bastante correcto.
    
    E-------------------------12------------------------------------------
    B------7-9-10-9-10-12-12b----12b---------------14-17-17b-17b----------
    G--10b---------------------------------14-16b-------------------------
    D--------------------------------14/16--------------------------------
    A---------------------------------------------------------------------
    E---------------------------------------------------------------------
    
    
    E----------------17b--17-16-16----------------------------------------
    B----------14------------------19-17-14-----17------------------------
    G----14-16----14------------------------16b----16b--14-16--14---------
    D--16-----------------------------------------------------------------
    A---------------------------------------------------------------------
    E---------------------------------------------------------------------
    
    
    E----------------------------------17--1
  •    FA#m             MI               SIm              LA       MI
    ----------------|----------------|----------------|----------------|
    --5/7/5---------|--5/7/5---------|--5/7/5---------|--5/7/5---------|
    ---------6------|---------6------|---------6------|---------6------|
    ------------7---|------------7---|------------7---|------------7-6-|
    ----------------|----------------|----------------|----------------|
    ----------------|----------------|----------------|----------------|
    
    
        FA#m
    Puedo escribir y no disimular
        MI
    es la ventaja de irse haciendo? viejo
      SIm
    no tengo nada para impresionar
          LA               MI
    ni por fuera ni por dentro.
    
    
        FA#m
    
  • A disfrutarlo!
    
    
    El La lo hago con cejilla en 5º traste, aunque en las primeras estrofas
    no suena mal sin cejilla.
    y cuando pongo Mi* es Mi en 4º traste, que me suena mejor:
    
      O____O/
    1 ||||||
    2 ||||||
    3 ||||||
    4 |||O|O
    5 ||||O|
    6 ||O|||
    7 |O||||
    
    
    El Re también me suena mejor en la posición anterior
    dos trastes más arriba:
    
    
  • e |-----------2-|-----------0-|-----------2-|-----------0----0-----||
    B |--5/7/5----2-|--5/7/5----0-|--5/7/5----3-|--5/7/5----2----0-----||
    G |--------6--2-|--------6--1-|--------6--4-|--------6--2----1-----||
    D |-----------4-|-----------2-|-----------4-|-----------2----2-----||
    A |-----------4-|-----------2-|-----------2-|-----------0----2-----||
    E |-----------2-|-----------0-|-------------|----------------0-----||
    
    / = slide
    v = vibrato
    
    
              F#m
    Puedo escribir y no disimular
              E
    es la ventaja de irse haciendo viejo
              Bm
    no tengo nada para impresionar
              A          E
    ni por fuera ni por dentro.
    
    
  • +
    ¡Colabora con nosotros!
    Envíanos tu versión de esta canción

Letra de Antes de que cuente diez
Puedo escribir y no disimular
Es la ventaja de irse haciendo viejo
No tengo nada para impresionar
Ni por fuera ni por dentro.
La noche en vela voy cruzando el mar
Porque los sueños viajan con el viento
Y en mi ventana sopla en el cristal
Mira a ver si estoy despierto.
Inter X 2: F#m A E
Me perdí en un cruce de palabras
Me anotaron mal la dirección
Ya grabé mi nombre en una bala
Ya probé la carne de cañón.
Ya lo tengo todo controlado
Y alguien dijo no,no,no,no,no
Que ahora viene el viento de otro lado
Déjame el timón…. y alguien dijo no,no,no.
Lo que me llevará al final
Serán mis pasos, no el camino
¿ No ves que siempre vas detrás
cuando persigues al destino?
Siempre es la mano y no el puñal
Nunca es lo que puede haber sido
No es porque digas la verdad
Es porque nunca me has mentido.
No voy a sentirme mal
Si algo no me sale bien
He aprendido a derrapar
Y a chocar con la pared.
Que la vida se nos va
Como el humo de ese tren
Como un beso en un portal
Antes de que cuente diez.-
Y no volveré a sentirme extraño
Aunque no me llegue a conocer
Y no volveré a quererte tanto
Y no volveré a dejarte de querer.
Dejé de volar, me hundí en el barro
Y entre tanto barro me encontré
Algo de calor, sin tus abrazos,
Ahora sé que nunca volveré.




[Antes de que cuente diez chords][Antes de que cuente diez cifra]
© LaCuerda.net · aviso legal · privacidad · es · en · pt · contacto