Acordes de Guitarra » F »Fito & Fitipaldis » Acabo de llegar (Tab)

Acabo de llegar
Fito & Fitipaldis

Letras, Notas, Punteos, Tablaturas y Acordes de Guitarra (Tabs & Chords)

  • Letra y Acordes
    F                              C
    Qué te voy a decir si yo acabo de llegar
                       G                          Am
    si esto es como el mar quien conoce alguna esquina
      F                                C
    Dejadme nacer que me tengo que inventar
                  G                    Am
    para hacerme pez empecé por las espinas.
    
    (Aqui se tocan las dos cuerdas superiores con Am en quintas:
    A:--7-7-7-7-7-7-7-7--
    E:--5-5-5-5-5-5-5-5--
    
    Dm                        Am                           C
    Nunca lo escribí en un papel y nunca me ha encantado mi voz
                                G
    y tú ahora me preguntas qué hacer
     Dm                               Am
    Y yo que siempre voy detrás del error
                                  C
    
  • Letra y Acordes
            F                             C
    Que te voy a decir si y acabo de llegar
                        G                            Am
    Si esto es como el mar ¿Quién conoce alguna esquina?
            F                              C
    Dejadme nacer, que me tengo que inventar
                  G                       Am
    Para hacerme pez, empecé por las espinas
    Dm                 Am
    Nunca lo escribí en un papel
                               C
    Y nunca lo ha cantado mi voz
                                      G
    Y tu ahora me preguntas ¿que hacer?
      Dm                              Am
    Y yo, que siempre voy detrás del error
                                  C
    Que canto a lo que nunca tendré
                                G
    Al beso que ella nunca me dio
    
  • Tablatura
    EL SOLO DE SAXO DEL FINAL:
    
    E|-------------------------------------------------------|
    B|----------------13-------------------------------------|
    G|----------12-14----14-12-------------------------12----|
    D|----12-14----------------14-12----12----12----12----14-|
    A|-15----------------------------15----15----15----------|
    E|-------------------------------------------------------|
    
    
    E|--------------------|
    B|--------------------|
    G|---------14-12-12---|
    D|---12-14---------12-|
    A|-15-----------------|
    E|--------------------|
    
    FINAL 1:
    E|-----------------------------|
    B|-----------------------------|
    G|-----------14-12-------------|
    D|-----12-14-------14-12----14-|
    A|--15-------------------15----|
    E|-----------------------------|
    
    FINAL 2:
    
    E|------------------------------|
    B|------------------------------|
    G|-----------14-12-14-----------|
    D|-----12-14--------------------|
    A|--15--------------------------|
    E|------------------------------|
  • Tablatura
    Este es el punteo de la guitarra en el minuto 2´01 de la cancion,
    espero que os suene bien.
    saludos
    
    
                    punteo guitarra
    e|-----------------------------------------------|
    B|------------------------13~--------------------|
    G|-------------14~-----12------12/14-12----------|
    D|-------12-14--------------------------12/14~---|
    A|-12-15-----------------------------------------|
    E|-----------------------------------------------|
    
    e|-----------------------------------------------|
    B|-----------------------------------------------|
    G|--14-12----------------------------------------|
    D|--------12~----14-15~----12/14-12-10-12-10-----|
    A|-------------------------------------------12~-|
    E|-----------------------------------------------|
    
    
    
    
    e|----------------------------------------------|
    B|-----------------------13~--------------------|
    G|-------------14~----12--------12-14-12--------|
    D|-------12-14---------------------------12/14~-|
    A|-12-15----------------------------------------
  • +
    ¡Colabora con nosotros!
    Envíanos tu versión de esta canción
  • Tutorial
    HD
    Acabo de Llegar de Fito Tutorial guitarra acordes y ritmo TUTORIAL guitarra acústica
    7:30
  • Tutorial
    Como Tocar Acabo de Llegar de Fito y Fitipaldis (Acústica)
    - Tutorial HD - FermiGuitarra
    12:00

Letra de Acabo de llegar
Qué te voy a decir si yo acabo de llegar
si esto es como el mar quien conoce alguna esquina
Dejadme nacer que me tengo que inventar
para hacerme pez empecé por las espinas.
(Aqui se tocan las dos cuerdas superiores con Am en quintas:
E:--5-5-5-5-5-5-5-5--
Nunca lo escribí en un papel y nunca me ha encantado mi voz
y tú ahora me preguntas qué hacer
Y yo que siempre voy detrás del error
que canto a lo que nunca tendré
al beso que ella nunca me dio
Dime tú qué puede saber
alguien que ha pasado la vida buscando la melodía
Qué te voy a decir si yo acabo de llegar
si esto es como el mar quien conoce alguna esquina
Dejadme nacer que me tengo que inventar
para hacerme pez empecé por las espinas.
La vida es algo que hay que morder y en cada boca tiene un sabor
tus huesos no los tapa mi piel por eso siempre digo que no
ahora tengo cosas que hacer que aún me queda media vida
para encontrar la melodía...
Qué te voy a decir si yo acabo de llegar
si esto es como el mar quien conoce alguna esquina
Dejadme nacer que me tengo que inventar....
Qué te voy a decir si yo acabo de llegar
si esto es como el mar quien conoce alguna esquina
Dejadme nacer que me tengo que inventar
para hacerme pez empecé por las espinas.
(y sigue con F-C-G-Am...)
-creo que la canción está bien. Aún así acepto cualquier tipo
de comentario, corrección o crítica a corrimingo@hotmail.com



© LaCuerda.net · Aviso Legal · Privacidad