Tablatura para Guitarra de Fito & Fitipaldis: Antes de que cuente diez
Conexión · Inscripción
Letras y Acordes
Pantalla Completa
Imprimir
Versión Texto
Añadir Favorito
Otras Versiones

Mostrar Diagramas
Desfile Automático
Manipular Acordes
Formato del Texto


Antes de que cuente diez(TAB)

Fito & Fitipaldis

calidad:
f_fi0432
AUTOR: Fito
ALBUM: Antes de que Cuente diez (2009)
Enviado por Óscar
Bueno he aqui el solo de esta canción.
Me lo he sacado de oído pero creo que esta bastante correcto.

E-------------------------12------------------------------------------
B------7-9-10-9-10-12-12b----12b---------------14-17-17b-17b----------
G--10b---------------------------------14-16b-------------------------
D--------------------------------14/16--------------------------------
A---------------------------------------------------------------------
E---------------------------------------------------------------------


E----------------17b--17-16-16----------------------------------------
B----------14------------------19-17-14-----17------------------------
G----14-16----14------------------------16b----16b--14-16--14---------
D--16-----------------------------------------------------------------
A---------------------------------------------------------------------
E---------------------------------------------------------------------


E----------------------------------17--17p14--------------------------
B------------------17--17p14-----------------17-14-17----17-----------
G--16--16p14-----------------16-14--------------------16b--16b--16-14-
D------------16-14----------------------------------------------------
A---------------------------------------------------------------------
E---------------------------------------------------------------------


E-------------------------------------|-----------------10/9----9-----
B---7---7---7--7-9b-7-----------------|--------9-10/12-------10---10--
G--9b--9b--9b--------9b-9b-6-3-6------|--9-11-------------------------
D--------------------------------7/9--|-------------------------------
A-------------------------------------|-------------------------------
E-------------------------------------|-------------------------------


E-----------------------------------------------|
B-----------------------------------------------|
G--9/7/6----6-------------------2----2-2--------|
D--------9-----7/9--9------2/4----4-------2/4---|
A-----------------------------------------------|
E-----------------------------------------------|


E---------------------------------------------------------------------
B______ (3 Veces)__________---------------2-3-4-5-4-3-2---------------
G--2--1--2--1--2--1--2--4--2--------2--4b---------------4b-4--2-------
D--4--2--4--2--4--2--4--6--4----2/4-----------------------------------
A---------------------------------------------------------------------
E---------------------------------------------------------------------


E---------------------------------------------------------------------
B---------------------------------------------------------------------
G--2--1--2--1--2---1--2--4--2--1--2--1--2--1--2---1--2--4--2--1--2----
D--4--2--4--2--4---2--4--6--4--2--4--2--4--2--4---2--4--6--4--2--4----
A---------------------------------------------------------------------
E---------------------------------------------------------------------


E---------4-----5-------------------------|
B------------------5--7b-5----------------|
G--1--2/4---4/6-------------6-5-4-2-------|
D-------------------------------------4---|
A-----------------------------------------|
E-----------------------------------------|

Un saludo a todos los guitarristas ^^
Por favor puntuen, eso ayuda a mejorar.

Cualquier duda:
halcontibetano@hotmail.com
Este fichero es trabajo propio de su transcriptor y representa su interpretación personal de la canción. El material contenido en esta página es
para exclusivo uso privado, por lo que se prohibe su reproducción o retransmisión, así como su uso para fines comerciales.

© LaCuerda.net · Aviso Legal · Privacidad