Acordes de Guitarra » F »Fito & Fitipaldis » La casa por el tejado (Tab)

La casa por el tejado
Fito & Fitipaldis

  • Letra y Acordes
    Gm7    35333-
    F      13321-
    Cm7    -3534-
    F5     -3356-
    Bb     -1333-
    Cm     -3554-
    F#dim7 23424-
    Eb5    -1134-
    
    # (casi)Todos los cambios de acorde son a contratiempo (aunque aquí
    # los acordes estén puestos en la sílaba tónica, más o menos)
    
    Intro (Gm F)
    
          Gm7   F                          Gm7
    Ahora sí, parece que ya empiezo a entender
        F                  Gm
    las cosas importantes aquí
        F                          Gm7     F
    son las que están detrás de la piel.
    
  • Letra y Acordes
    SIm         LA                          SIm
    Ahora si, parece que ya empiezo a entender
            LA              SIm
    Las cosas importantes aquí
       LA                           SIm   LA
    Son las que están detrás de la piel
                SIm
    Y todo lo demás....
    LA                          SIm
    empieza donde acaban mis pies
        LA                          SIm
    después de mucho tiempo aprendí
             LA                     SIm   LA
    que hay cosas que mejor no aprender.
    
    
    SOL          RE         LA              SOL          RE           LA SIm
    El colegio poco me enseño....si es por esos libros nunca aprendo
    RE      SOL        LA          RE
    A coger el cielo con las manos
    
  • Tablatura
    e[--------------------------------------------------------------
    B[--------------------------------------------------------------
    G[--------------------------------------------------------------  x4
    D[-----5-----3-5---------3---------------------------------------
    A[-------5-------------------3-3--1-0----------------------------
    E[--3---------------1------1----------3--------------------------
    
    Durante esta introducción de aquí abajo
    teneis q tocar este riff
    parecido al de arriba pero con notas distintas:
    
    Ahora si, parece que ya empiezo a entender
    Las cosas importantes aquí
    Son las que están detrás de la piel
    Y todo lo demás....
    empieza donde acaban mis pies
    después de mucho tiempo aprendí
    que hay cosas que mejor no aprender.
    
    Riff1
    
  • Tab p/Bajo
    LA CASA POR EL TEJADO - FITO FITIPALDIS
    
    INTRODUCCION
    
       Gm  F  Cm  Gm  F  Cm  Gm  F  Cm  Gm  F  Cm  Gm  F  Cm Gm   F
    G|----|-----|----|-----|----|-----|----|-----|----|-----|----|----|
    D|----|-----|----|-----|----|-----|----|-----|----|-----|----|----|
    A|----|---33|----|---33|----|---33|----|---33|----|---33|----|----|
    E|3-3-|1-1--|3-3-|1-1--|3-3-|1-1--|3-3-|1-1--|3-3-|1-1--|3-3-|1-11|
    B|---3|-----|---3|-----|---3|-----|---3|-----|---3|-----|---3|----|
    
    ESTROFA
    
       Gm  F  Cm  Gm  F  Cm  Gm  F  Cm  Gm   F
    G|----|-----|----|-----|----|-----|----|-----|
    D|----|-----|----|-----|----|-----|----|-----|
    A|----|---33|----|---33|----|---33|----|-----|
    E|3-3-|1-1--|3-3-|1-1--|3-3-|1-1--|3-3-|1-111|
    B|---3|-----|---3|-----|---3|-----|---3|-----|
    
       Gm  F  Cm  Gm  F  Cm  Gm  F  Cm  Gm   F
    G|----|-----|----|-----|----|-----|----|-----|
    D|----|-----|----|-----|----|-----|----|-----|
    A|----|---33|----|---33|----|---33|----|-----|
    E|3-3-|1-1--|3-3-|1-1--|3-3-|1-1--|3-3-|1-111|
    B|---3|-----|---3|---
  • +
    ¡Colabora con nosotros!
    Envíanos tu versión de esta canción

Letra de La casa por el tejado
# (casi)Todos los cambios de acorde son a contratiempo (aunque aquí
# los acordes estén puestos en la sílaba tónica, más o menos)
Ahora sí, parece que ya empiezo a entender
las cosas importantes aquí
son las que están detrás de la piel.
Y todo lo demás
empieza donde acaban mis pies.
Después de mucho tiempo aprendí
que hay cosas que mejor no aprender.
El colegio poco me enseñó.
Si es por esos libros nunca aprendo
a coger el cielo con las manos,
a reír y a llorar lo que te canto,
a coser mi alma rota,
a perder el miedo a quedar como un idiota,
y a empezar la casa por el tejado,
a poder dormir cuando tú no estás a mi lado.
Menos mal que fui un poco granuja,
todo lo que sé me lo enseñó una bruja
Instrumental (Gm B7 F F7)
Ruinas... ¿no ves que por dentro estoy en ruinas?
Mi cigarro va quemando el tiempo,
tiempo que se convirtió en cenizas
Raro!! ... no digo diferente digo raro!!
Ya no sé si el mundo está al revés
o soy yo el que está cabeza abajo
El colegio poco me enseñó.
Si es por el maestro nunca aprendo[...]



© LaCuerda.net · aviso legal · privacidad · contacto