Acordes de Guitarra » F »Fito & Fitipaldis » Soldadito Marinero (Tab)

Soldadito Marinero
Fito & Fitipaldis

Letras, Acordes y Tabs para Guitarra, Bajo y Ukulele

  • G D D A
    G D D A D
    
    
                      1ª ESTROFA
    
    A                    G                       D
    Él camina despacito que las prisas no son buenas
    D                                         A
    En su brazo dobladita con cuidado la chaqueta
    G                                             D
    Luego pasa por las calles donde los chavales juegan
    D                         A                  D
    Él también quiso ser niño pero le pilló la guerra
    
    
                       ESTRIBILLO
    
    G                                    D
    Soldadito marinero conociste a una sirena
    
  • A                    G                       D
    Él camina despacito que las prisas no son buenas
    Bm                   D                   A
    En su brazo dobladita con cuidado la chaqueta
    G                                             D
    Luego pasa por las calles donde los chavales juegan
    Bm                     A                     D
    Él también quiso ser niño pero le pilló la guerra
    
                       ESTRIBILLO
    
    G                                  D
    Soldadito marinero conociste a una sirena
    Bm                                              A
    De esas que dicen “te quiero” si ven la cartera llena
    G                                      D
    Escogiste a la más guapa y a la menos buena
    Bm                 A                        D
    Sin saber como ha venido te ha cogido la tormenta
    
    
  • |-------------3---------2---------2------------|
    |-------------3---------3---------3----------2-|
    |-------------0---------2---------2--------2-2-|
    |--2/4^2-0----0---------0---0h4---4---0h4-4--2-|
    |-------------2---0h2------------------------0-|
    |-------------3--------------------------------|
    
    |-------------3---------2---------2-------------------2-|
    |-------------3---------3---------3---------2---------3-|
    |-------------0---------2---------2---------2---------2-|
    |--2/4^2-0----0---------0---0h4---4---0h4---2--2br-0--0-|
    |-------------2---0h2-----------------------0-----------|
    |-------------3-----------------------------------------|
    
    El ritmo del verso es el siguiente(lo he hecho como he podido aqui).
    Se supone que son negras, corcheas y semicorcheas.
    n=se toca hacia abajo  v=se toca hacia arriba  ()=no se toca.
    n(vnv) n(v)n v
    |      |   | |
    |      |   | |    X2 Cada compás
    
  • INTRO: G D Bm A
           G D Bm-A-D                 
    
    
                   G       D      Bm         A             G       D             Bm A           D
    
    E--------------3-------2-----------------0--------------------------------------------------2----------
    B--------------3-------3-----------------2---------------3--------3-------------------------3----------
    G--------------0-------2-----------------2-------------0---0--------2-2---------------------2----------
    D---2h4-2-0----0-----0----0h4-7-0h4-4h7--2---------------------0----------0h4-7-2-2/4\2p0-0------------
    A--------------2---0---------------------0---2h4-2-0---------------------------------------------------
    E------------3-3-------------------------------------3-------------------------------------------------
    
    
    
    
    
    A                    G                       D  (riff 1)
    Él camina despacito que las prisas no son buenas
    
    
  • +
    ¡Colabora con nosotros!
    Envíanos tu versión de esta canción
  • Tutorial
    Como tocar Fito Soldadito Marinero acordes tutorial en guitarra de Fito Fitipaldis como tocar
    15:45

Letra de Soldadito Marinero
Él camina despacito que las prisas no son buenas
En su brazo dobladita con cuidado la chaqueta
Luego pasa por las calles donde los chavales juegan
Él también quiso ser niño pero le pilló la guerra
ESTRIBILLO
Soldadito marinero conociste a una sirena
De esas que dicen “te quiero” si ven la cartera llena
Escogiste a la más guapa y a la menos buena
Sin saber como ha venido te ha cogido la tormenta
Él quería cruzar los mares y olvidar a su sirena
La verdad no fue difícil cuando conoció a Mariola
Que tenía los ojos verdes y un negocio entre las piernas
Hay que ver que puntería no te arrimas a una buena
ESTRIBILLO
Soldadito marinero conociste a una sirena
De esas que dicen “te quiero” si ven la cartera llena
Escogiste a la más guapa y a la menos buena
Sin saber como ha venido te ha cogido la tormenta
Después de un invierno malo
Una mala primavera
No sé por que estás buscando
Una lágrima en la arena(x 3)
Después de un invierno malo




[Soldadito Marinero chords][Soldadito Marinero cifra]
© LaCuerda.net · aviso legal · privacidad · es · en · pt · contacto