Acordes de Guitarra » F »Fito & Fitipaldis » Las nubes de tu pelo (Tab)

Las nubes de tu pelo
Fito & Fitipaldis

Letras, Acordes y Tabs para Guitarra, Bajo y Ukulele

  • C  G   D  Em
    C  Em  D  B7
    
    
    Estrofa:
    C                                       G
    No hay mejor lugar, que entre las nubes de tu pelo,
    D          B7               Em
    para revolver, las drogas con los versos,
    C                    D            Em
    lo mejor del Sol, el brillo de la Luna,
    G              B7
    que es tu corazón.
    
    C                                     G
    En medio del mar, te sientes como en un desierto,
    D                B7            Em
    primavera ven, y cúrame el invierno,
    C                 D             Em
    loco trovador, es tu canción desnuda,
    
  • --------------------------------------------------------
    -1--1-1-1-1-1-1-1---3---3---------3---3-----------------
    -0--0-0-0-0-0-0-0---0---0---------0---0---2---2-0-2-2-0-
    -2--2-0-2---2-0-----------0---------------4---4---4-4---
    ------------------2---2-----2-2-2---2---2---2-----------
    ------------------3---3-----3-3-3---3-------------------
    
    ------------------------
    ------------------------
    ------------------------
    4-2--2-2-0-2-2-2-0-0-2-0
    2-2--2-2-2-2-2-2-2-2-2-2
    ------------------------
    
    
    ------------------3-0------------------------------------
    -1--1-1-1-1---3-3----------------------------------------
    -0--0-0-0-0-4-------------------0--------------------2---
    -2--2-0-2-------------2-2-2-0-2-2-2-0-2-2-0----------4---
    ----------------------2-2-2-2-2-2-2-2-2-2-2-2--2-2-0-2-2-
    
  •        C                G                 D
    E|--------------------------------------------------------------|
    B|--------------------------------------------------------------|
    G|----------0------0--0---0------0--0-------------0-2-2-0-0-----|
    D|--2-2-0-2---2-0-2-------------------0-4-0-4-4-0---0-0-----4-4-|
    A|--3-3-3-3-3-3-------------0-----------------------------------|
    E|-------------------3---3---3-3---3----------------------------|
    
          Em                      C               D       Em
    E|------------------------|-------------------------------------------|
    B|------------------------|-------------------3-0---------------------|
    G|---------------0--------|---------0-----2-2----------------0------0-|
    D|--2-2-0-2-0-2----0-0-2-2|-2-2-0-2----0----------2-2-2-0-2----2-0-2--|
    A|--2-2---2---2-----------|-3-3-3-3-3-------------2-2-----2--2-2------|
    E|------------0-----------|-----------------------0-------------------|
    
          G                 B7
    E|------------------------------(2)-|
    B|------------------------------(0)-|
    G|----0---0----2---2-2-2-2-2-2--(2)-|
    
  • +
    ¡Colabora con nosotros!
    Envíanos tu versión de esta canción

Letra de Las nubes de tu pelo
Estrofa:
No hay mejor lugar, que entre las nubes de tu pelo,
para revolver, las drogas con los versos,
lo mejor del Sol, el brillo de la Luna,
que es tu corazón.
En medio del mar, te sientes como en un desierto,
primavera ven, y cúrame el invierno,
loco trovador, es tu canción desnuda,
sólo corazón.
Estribillo:
Hoy me quedo en casa lo de fuera no me interesa,
ya saldré a dar una vuelta otro día que no llueva,
¿Cuántas flores para un ramo? ¿Cuántos versos para un poema?




[Las nubes de tu pelo chords][Las nubes de tu pelo cifra]
© LaCuerda.net · aviso legal · privacidad · es · en · pt · contacto