Acordes de Guitarra » E »Extremoduro » Sucede (Tab)

Sucede
Extremoduro

Letras, Acordes y Tabs para Guitarra, Bajo y Ukulele

  • Intro: Em     C     Em     D  C/Em/C
    
      Em                    C
    Sucede que me canso de ser hombre
      Em                       D
    Sucede que me canso de mi piel y de mi cara
      Em                            C
    Sucede que se me ha alegrado el día, ¡coño!
       Em                          D
    Al ver al sol secándose en tu ventana tus bragas
      Em                      C                 Em
    Empieza a solas, sigo por ti y no comprendo nada
              D           C Em C
    Desato tormentas sin rechistar
    Em                     C               Em         D    C Em C
    Sácame algún día del corral, necesito salir.
    
    Solo  C D Em D C
    
     C             D
    
  • E|-------5h7--|    E|---------|
    B|--5h8-------|    B|---------|
    G|------------| X2 G|---7--9--|
    D|------------|    D|---7--9--|
    A|------------|    A|---5--7--|
    E|------------|    E|---------|
    
    
    ]]GUITARRA 1[[
    
    
    E|------------------------------------------------------------------|
    B|------------------------------------------------------------------|
    G|------------------------------------------------------------------|
    D|--2---------------------------------------------------------------|
    A|--2--2-2-2-2-2--2-3--2-2-2-2-2--3-2--2-2-2-2-2---5-3-0h2p0--------|
    E|--0--0-0-0-0-0-------0-0-0-0-0-------0-0-0-0-0-------------3-2-3--|
    
    
    
    
  • e |--------------------------------------------------------------------|
    B |--------------------------------------------------------------------|
    G |--------------------------------------------------------------------|
    D |----------------3-2---------------2-3--------------5-3--2-0---------|
    A |------------------------------------------------------------3--2-3--|
    E |---0-0-0-0-0-0-------0-0-0-0-0-0------0-0-0-0-0-0-------------------|
    
    e |--------------------------------------------------------------------|
    B |---------------------------------------------------8-7--5-----------|
    G |-----------------7-5--------------7-9---------------------7-5--4-5--|
    D |-----------------7-5--------------7-9-------------------------------|
    A |--------------------------------------------------------------------|
    E |---0-0-0-0-0-0-------0-0-0-0-0-0------0-0-0-0-0-0-------------------|
    
    
    
    1)
    e |--------------------------------------------------------------------|
    B |--------------------------------------------------------------------|
    G |-----------------7-5--------------7-9--------------7-5--4-----------|
    
  • mu buenas, sigo sacandome canciones y creo que para esta he logrado encontrar la
    forma correcta.
    
    Fijaos en que (excepto las 3 primeras) cada parte tiene su numero, 1), 2)... lo digo porq luego 
    pongo el numero en vez de copiarla de nuevo otra vez, la estructura de la cancion esta completa
    
    una cosa mas, no voy a poner en todas PM, pero al tocar la cancion
    las propias notas os piden tapar, son los 0 sueltos
    
    Empezamos;
    
    e |-------------------------------|
    B |-------------------------------|
    G |-------------------------------|  deslizamiento
    D |---10/-------------------------|
    A |-------------------------------|
    E |-------------------------------|
    
    
    
    e |--------------------------------------------------------------------|
    B |--------------------------------------------------------------------|
    G |--------------------------------------------------------------------|
    D |--------------------------------------------------------------------|
    A |----------------2-3-(3)
  • +
    ¡Colabora con nosotros!
    Envíanos tu versión de esta canción

Letra de Sucede
Sucede que me canso de ser hombre
Sucede que me canso de mi piel y de mi cara
Sucede que se me ha alegrado el día, ¡coño!
Al ver al sol secándose en tu ventana tus bragas
Empieza a solas, sigo por ti y no comprendo nada
Desato tormentas sin rechistar
Sácame algún día del corral, necesito salir.
¡Eh! lejos de mí,
deja que corra el aire y note que me va a salir el sol
Sol, déjame en paz,
la luna me ilumina, en esta ruina entra la claridad
¿Quién quiere saber si estoy quemado
o escondo un corazón helado y quema mi ser?
No he vuelto a ser el mismo desde que se fue
Gillespie, Zappa, Mercury y Camarón.
Y me siento mejor, si sé que tengo una estrellita
Pequeñita pero firme, pero firme, pero firme
Yo me quedé con su olor, ella me arrancó la piel
Me dijo justo al final “no quiero volverte a ver”
¡Eh! lejos de mí,
deja que corra el aire y note que me va a salir el sol
Sol, déjame en paz,
la luna me ilumina, en esta ruina entra la claridad
¿Quién quiere saber si estoy quemado
o escondo un corazón helado y quema mi ser?
No he vuelto a ser el mismo desde que se fue
Gillespie, Zappa, Mercury y Camarón.
Y me siento mejor, si sé que tengo una estrellita
Pequeñita pero firme, pero firme, pero firme
Bye. Sex,drugs & rock 'n roll.Jon.




[Sucede chords][Sucede cifra]
© LaCuerda.net · aviso legal · privacidad · es · en · pt · contacto