Acordes de Guitarra » E »Extremoduro » Cerca del suelo (Tab)

Cerca del suelo
Extremoduro

  • Letra y Acordes
     RE5 - MI5 - FA5 - SOL5
    
    
    
      estrofa:
    
     RE                  MI             FA         SOL
      No necesito ropa me arropa el olor...de ayer
    
     RE                  MI             FA         SOL
      no necesito ropa me arropa el sabor...a miel
    
     aki entra la seguda guitarra (k ace lo mismo)
    
     RE                  MI             FA         SOL
      No necesito que haya nada entre tu y yo...la piel
    
     RE                  MI             FA         SOL
      No necesito nada de tu corazon...Beber!
    
    
  • Tablatura
    Ejemplo C D E F G A B  el tercer tono de C seria E
    
    
    
    
    
    
        D3             E3              F3             G3
    e|----------------------------------------------------------------------
    B|----------------------------------------------------------------------
    G|----------------------------------------------------------------------
    D|----3----3----3-----5----5----5-----7----7----7-------9------9------9-
    A|-5-5--5-5--5-5---7-7--7-7--7-7---8-8--8-8--8-8---10-10--10-10--10-10--
    E|----------------------------------------------------------------------
    
    
          D3                   E3               F3             G3
      No necesito ropa me arropa el olor...de ayer
      No necesito ropa me arropa el sabor...a miel
    
    
  • Tab p/Bajo
    Tab para BAJO
    
    Riff de la intro
    
    G:--------------------------------
    D:-------------------0-0-0-0------
    A:0--0-2--0-2-3--2-3--------3-2-0-
    E:--3-----------------------------
    
    Esto se repite hasta el estribillo
    
    Riff del estribillo
    
    G:-----------------------
    D:3-2-0--------------0-2-
    A:-----3--2-0-----3-3----
    E:------------3--3-3-----
    
    Riff de la estrofa
    
    G:-------------------0-0-0-0-----
    D:0--0-2--0-2-3--2-3--------3-2-0
    A:--2----------------------------
    E:-------------------------------
    
    Riff del puente
    
    G:----------------------------------------------------------------------------------
    D:----------------------------------------------------------------------------------
    A:5-5-5-5-5-5-5-5-5-5-5-5-5-5-5--------------------------------------------------0-3
    E:-----------------------------5-5-5-5-5-5-5-5-5-5-5-5-5-5-5-1--1--0-1--1--1--1-3---
  • +
    ¡Colabora con nosotros!
    Envíanos tu versión de esta canción
  • Tutorial
    Como Hacer Cerca del suelo de extremoduro
    9:00
  • Tutorial
    Como Hacer Cerca del suelo Extremoduro
    6:22

Letra de Cerca del suelo
estrofa:
No necesito ropa me arropa el olor...de ayer
no necesito ropa me arropa el sabor...a miel
aki entra la seguda guitarra (k ace lo mismo)
No necesito que haya nada entre tu y yo...la piel
No necesito nada de tu corazon...Beber!
estribillo:
Quedamos cerca del suelo
A la altura de tu cintura
o quedamos cerca del suelo
donde se refleje la luna
estrofa:
Que prado tan bonito
ahí podemos revolcarnos
y llegaron mil mosquitos
y empezaron a pikarnos
en lo alto del culito
y nos fuimos dando saltos
eramos como dos ranas
en busca de un solo charco
la siguiente parte la tocan una octava mas alta:
y se des - ar - ma la lunaa
con solo tokarla
se enciende la luz
que hay dentro de la charca
como dos gotas de agua
de distinta nube
que bajan y que suben
otra vez estribillo:
Quedamos cerca del suelo
A la altura de tu cintura
o quedamos cerca del suelo
donde se refleje la luna
estrofa:
Mira que bar tan bonito
podemos emborracharnos
estaba lleno de amigos
empezaron a invitarnos
se puso a cantar el fito
y nos fuimos dando saltos
con el corazon blandito subiendo hasta lo mas alto
y se des - ar - ma la lunaa
con solo tokarla
se enciende la luz
que hay dentro de la charca
como dos gotas de agua
de distinta nube
que bajan y que suben
estribillo:
Quedamos cerca del suelo
A la altura de tu cintura
o quedamos cerca del suelo
donde se refleje la luna
Busco como el agua una bajada y me dejo caer
derechito hasta tus pies.
Juntos somos como cataratas puestas del revés
y volver p'arriba otra vez..
Monto de bajada en tu mirada y me dejo llevar.
Y por delante y por detrás
no queda en pie ni una regla que no podamos saltar,
ni limite por atravesar.
estribillo:
Quedamos cerca del suelo
A la altura de tu cintura
o quedamos cerca del suelo
donde se refleje la luna
acaba en dooo
bueeeno pues ya esta joder k se me a muy echo largo cño
espero k os guste
asta otraaa
Marcoo



© LaCuerda.net · aviso legal · privacidad · contacto
DINAMICO