Acordes de Guitarra » E »Extremoduro » Bulerias de la sangre caliente (Tab)

Bulerias de la sangre caliente
Extremoduro

Letras, Acordes y Tabs para Guitarra, Bajo y Ukulele

  •      E  G  F#        A  G  F#      E  G  F#     A  G
    e:-----------------------------------------------------
    B:-----------------------------------------------------
    G:-----------------------------------------------------
    D:---2--5--4---------7--5--4-------2--5--4------7--5---
    A:---2--3--4---------7--5--4-------2--3--4------7--5---
    E:---0--3--2---------5--3--2-------0--3--2------5--3---
    
      Aki el ritmillo es mas rapido kada kinta se toka unas kuantas veces aora 
    se repite 2 veces
    
    e:-----------------------------------------------------
    B:-----------------------------------------------------
    G:-----------------------------------------------------
    D:---44444-222--555-4444--222--7--5--------------------     X2
    A:---44444-222--555-4444--222--7--5--------------------
    E:---22222-000--333-2222--000--5--3--------------------
    
      Esta parte tambien se repite 2 veces, este es el riff principal
    
    
  • NOTA:
    
    Espero y te ayude en algo esta tab.
    
    Si necesitas una tab en especial, escríbeme o visita...
    
    myspace.com/alejandrolauyola
    
         H        Q       Q.     Q.        E  H        E.
    G||----------------|----------------|------------------|
    D||----------------|----------------|------------------|
    A||----------------|----------------|------------------|
    E||----------------|--0------3------|--2---------------|
    
    
      Q.     Q.        E  E  H           Q.     Q.        E  E  H
    ----------------|-----------------|----------------|-----------------|
    ----------------|-----------------|----------------|-----------------|
    ----------------|-----------------|----------------|-----------------|
    --5------3------|--2--------------|--0------3------|--2--------------|
    
    
      H.              S S S S S S S S S S S S    Q    S S E.  E.
    ---------------|--------------------------|-------------------|
    ---------------|--------------------------|-------------------|
    ---------------|--------------------------|----
  • +
    ¡Colabora con nosotros!
    Envíanos tu versión de esta canción

Letra de Bulerias de la sangre caliente
Aki el ritmillo es mas rapido kada kinta se toka unas kuantas veces aora
se repite 2 veces
Esta parte tambien se repite 2 veces, este es el riff principal
RIFF 1
Aki es kuando el Robe empieza a cantar
RIFF 1
soyyyyyyyy trozos de lluvia y de sol
siento ke se me akaba el kalor
busko entre tus piernas la feee
y hundo mi sol mojado en tu piel
Aki solo toka el bajo y la bateria luego biene:
Cada mañana te miro al pasar te miro te tiro y me piro sin mas
Ke en libros de ciencias e podido estudiar ke somos microbios venidos a mas
..........
Y LA CANCION SIGUE ASI TODO EL RATO weno si no os aclarais o
pensais ke esta mal o lo ke sea decidmelo :P yo creo ke suena
bastante bien es la primera ke sako ademas pa lo ke kerais mi
correo chris_dc@hotmail.com agurrrr!!!!!




[Bulerias de la sangre caliente chords][Bulerias de la sangre caliente cifra]
© LaCuerda.net · aviso legal · privacidad · es · en · pt · contacto
DINAMICO