Acordes de Guitarra » E »Extremoduro » A Fuego (Tab)

A Fuego
Extremoduro

Letras, Acordes y Tabs para Guitarra, Bajo y Ukulele

  • e|-----------------------------------  ----------------------------------
    B|-----------------------------------  ----------------------------------
    G|----------------3---3-3-5---5-5-7--  ---------------3---3-3-5---5-5-7--
    D|--5-5-5-7---7-7-3---3-3-5---5-5-7--  -5-5-5-7---7-7-3---3-3-5---5-5-7--
    A|--5-5-5-7---7-7-1---1-1-3---3-3-5--  -5-5-5-7---7-7-1---1-1-3---3-3-5--
    E|--3-3-3-5---5-5--------------------  -3-3-3-5---5-5--------------------
    
    
    Guitarra 2
    e|-----------------------------------  ----------------------------------
    B|-----------------------------------  ----------------------------------
    G|-----------------7---7-7-9---9-9-11  --12---14------15------17------19-
    D|9-9-9-11---11-11-7---7-7-9---9-9-11  --X----X-------X-------X-------X--
    A|9-9-9-11---11-11-5---5-5-7---7-7-9-  --10---12------13------15------17-
    E|7-7-7-9----9--9--------------------  ----------------------------------
    
    
    
    
    
    
  • Gm  A  A# C  D
    -3--5--6--8--10-
    -3--5--6--8--10-
    -3--6--7--9--11-
    -5--7--8--10-12-
    -5--7--8--10-12-
    -3--5--6--8--10-
    
    
    Riff 2
    ------------------
    ------------------
    ------------------
    -------0-------0--
    -----1-------3----
    -3-3-----5-5------
    
    Riff 3
    ------------------
    ------------------
    
  •                               A Fuego
    NOTA:
    
    Espero y te ayude en algo esta tab.
    
    Si necesitas una tab en especial, escríbeme o visita...
    
    http://www.myspace.com/alejandrolauyola
    
         Q.     H        E     Q.     H        E     W
    G||---------------------|---------------------|-------------------|
    D||---------------------|---------------------|-------------------|
    A||------------------1--|--L------3--------5--|--L----------------|
    E||--3------5-----------|---------------------|-------------------|
    
    
      W                   Q.     H        E     Q.     H        E
    -------------------|---------------------|---------------------|
    -------------------|---------------------|---------------------|
    --L----------------|------------------1--|--L------3--------5--|
    -------------------|--3------5-----------|---------------------|
    
    
      W                   W                   E  E  E  E  E  E  E  E
    -------------------|-------------------|--------------------------|
    -------------------|-----------------
  • +
    ¡Colabora con nosotros!
    Envíanos tu versión de esta canción
  • Tutorial
    HD
    COMO TOCAR A FUEGO/ EXTREMODURO (CON TABS)
    19:43

Letra de A Fuego
Guitarra 2
RIFF 1a RIFF 1b
Guitarra 1
pm_________________ pm_________________
Guitarra 2
RIFF 2a RIFF 2b
Guitarra 1
Guitarra 2
RIFF 3
Guitarra 1
Guitarra 2
SH_________________________________________ (SH = Semi Harmonico)
ESTRIBILLO
RIFF 4 (durante el primer solo)
El solo esta en la escala menor natural de G
RIFF 5
Y ahora si, la estructura de la cancion:
RIFF 1a x4 RIFF 1b x4
RIFF 2a
RIFF 1a x8 RIFF 1b x4
RIFF 3
RIFF 2a RIFF 2b
ESTRIBILLO x2
RIFF 4 (Solo)
RIFF 1a x4 RIFF 1b x4
RIFF 3
RIFF 2a
RIFF 1a x8
RIFF 3
RIFF 2a (una ligera variacion en la 2ª guitarra)
ESTRIBILLO x4
RIFF 5 x4
RIFF 2a (con otra pequeña variacion)
ESTRIBILLO x4
RIFF 4
RIFF 2a
ESTRIBILLO (muchas veces, es la ritmica en el ultimo solo)
El ultimo solo esta en la menor harmonica de G.
Eso es todo, si os gusta otro dia subo los punteillos y los solos y eso.
Cualquier cosa a kernelboy@superjmn.com, un saludo!




[A Fuego chords][A Fuego cifra]
© LaCuerda.net · aviso legal · privacidad · es · en · pt · contacto