Acordes de Guitarra » E »Enrique Bunbury » Sí (Tab)


Enrique Bunbury

Letras, Acordes y Tabs para Guitarra, Bajo y Ukulele

  •  Am                 F
    --------------------------------------
    ---1---1---1----1-----1---1---1---1---
    ---2---2---2----2-----2---2---2---2---
    ---2---2---2--2-2-2---3---3---3---3---
    -0---2---3------------------0---3---3-
    ---------------------1---3------------x3
    Am                                       ------------------------------
    Todo valio                               ---3---3---3------------------
          F                                  ---2---2---2--------3---3---3-
    un zarpazo al corazon                    -0-0---0---0--------5---5---5-
    Dm       G                               ---0---0---0--------5---5---5-
    disimulo , no hay delator                -----0---1---5-1--3---5---7---
    
    Am
    palpitacion
          F
    encontrar lo que busque
         Dm
    trocitos de sospecha,
    
  • INTRO:Am-F(x2)
    
    Am
    Todo valio
          F
    un zarpazo al corazon
    Dm         G
    disimulo , no hay delator
    
    Am
    palpitacion
          F
    encontrar lo que busque
         Dm
    trocitos de sospecha,
           G
    siete siglas de papel
    
    Am                           Em
    quien pudo ser quiero que seas tu
    
  • Intro: (Am, F)
    
    Am
    Todo valío,
           F                Dm
    un zarpazo al corazón,
              E7
    disimulo,
    
    no hay delator.
    
    Am
    Palpitación,
           F                 Dm
    encontrar lo que busqué,
    
    trocitos de sospecha,
    E7                       Am
    siete siglas de papel.
    
    
  •        Am                F
        E|-------------------1---3-------1---|
        A|-0---2---3-----------------0-------|
        D|-------------2---2-----------------|
        G|---2---2---2---2-----2---2---2---2-|
        B|---1---1---1---1-----1---1---1---1-|
        E|---0---0---0---0-----1---1---1---1-|   X2
    
    
            Todo valio,un zarpazo al corazon
        E|--------------------1---3-------1---|
        A|-0----2---3-----------------0-------|
        D|--------------2---2-----------------|
        G|----2---2---2---2-----2---2---2---2-|
        B|----1---1---1---1-----1---1---1---1-|
        E|----0---0---0---0-----1---1---1---1-|
           Am                 F
    
                Disumulo, no hay delator
        E|------------------3---------------|
    
  • Si (bass)
    Autor: Adria Punti
    Interprete: Enrique Bunbury
    Transcripcion: Daniel dm
    E-mail: Danieldm242@yahoo.com.mx
    
    G|-------------------------------------------------|
    D|-------------------------------------------------|
    A|--0--2--3--7-----------3--0--2--3--7-----------3-|
    E|--------------1--3--5-----------------1--3--5----|
    
    Todo Valio...		disimulo no hay delator
    G|---------------------|----------------------------|
    D|---------------------|----------------------------|
    A|--0--2--3--7---------|--3--5--7--8--12------------|
    E|--------------1--3--5|-----------------3--5--7--10|
    
    Palpitación...          Trocitos de sospecha...
    G|---------------------|----------------------------|
    D|---------------------|----------------------------|
    A|--0--2--3--7---------|--3--5--7--8--12------------|
    E|--------------1--3--5|-----------------3--5--7--10|
    
    Quien pudo...      tu...
    G|----------------|---------------|
    D|----------------|---------------|
    A|--0-----0-----0-|-------
  • +
    ¡Colabora con nosotros!
    Envíanos tu versión de esta canción
  • Tutorial
    HD
    Si de Bunbury - Solo (Guitar Cover)
    1:22

Letra de Sí
palpitacion
encontrar lo que busque
trocitos de sospecha,
siete siglas de papel
quien pudo ser quiero que seas tu
dimelo dimelo una vez
por clemencia por favor,
dimelo confieza,
tal vez no existas ante la duda un sueño
cariño, mi vida, criatura de rubi
tal vez no fuiste, dimelo.....ohoohhhh
ese recorte en verso
division con diestra
cada frase con sigilo
si cae triste melodía
y no existe huella
y tu carta me nublo
quien pudo ser quiero que seas tu
dimelo dimelo una vez
fue una burla por favor,
dimelo confieza,
tal vez no existas
ante la duda un sueño
cariño, mi vida, criatura de rubi
que puedo hacer sin tu rigor
esa ternura incierta
aunque me muera en ella
cada frase con sigilo
si cae triste melodia
y no existe huella
y tu carta me nublo
noooo... aunque no deba suplicarte
ven dimelo una vez
noooo... aunque tal vez deba indignarme
hazlo otra vez
y aunque sea solo un gesto,
un guiño solo un beso
intentalo una vez
antes de cada cita
mi deseo es que me digan...siiiiiiiii...
quien pudo ser quiero que seas tu
dimelo dimelo una vez
por clemencia por favor,
dimelo dimelo
quien pudo ser quiero que seas tu
dimelo dimelo una vez
fue una burla por favor
tal vez no existas ante la duda un.......siiiii...




[Sí chords][Sí cifra]
© LaCuerda.net · aviso legal · privacidad · es · en · pt · contacto