Tablatura para Bajo de Enrique Bunbury: Sí
Conexión · Inscripción
Letras y Acordes
Pantalla Completa
Imprimir
Versión Texto
Añadir Favorito
Otras Versiones

Mostrar Diagramas
Desfile Automático
Formato del Texto


(BAJ)

Enrique Bunbury

calidad:
enri0324
AUTOR: Adria Punti
ALBUM: Flamingos (2002)
Enviado por Daniel
Si (bass)
Autor: Adria Punti
Interprete: Enrique Bunbury
Transcripcion: Daniel dm
E-mail: Danieldm242@yahoo.com.mx

G|-------------------------------------------------|
D|-------------------------------------------------|
A|--0--2--3--7-----------3--0--2--3--7-----------3-|
E|--------------1--3--5-----------------1--3--5----|

Todo Valio...		disimulo no hay delator
G|---------------------|----------------------------|
D|---------------------|----------------------------|
A|--0--2--3--7---------|--3--5--7--8--12------------|
E|--------------1--3--5|-----------------3--5--7--10|

Palpitación...          Trocitos de sospecha...
G|---------------------|----------------------------|
D|---------------------|----------------------------|
A|--0--2--3--7---------|--3--5--7--8--12------------|
E|--------------1--3--5|-----------------3--5--7--10|

Quien pudo...      tu...
G|----------------|---------------|
D|----------------|---------------|
A|--0-----0-----0-|-------2-----2-|
E|-----0-----0----|----0-----0----|

Por clemencia por favor...
G|----------------|---------------|
D|----------------|---------------|
A|--0-----0-----0-|-------2-----2-|
E|-----0-----0----|----0-----0----|

Tal vez no  exista ante la duda un sueño
G|---------------------------------------|
D|---------------------------------------|
A|---------------------------------------|
E|--1-1-1-1-1-1-1-1-0-1-1-1-1-1-1-1-1----|

Cariño mi vida criatura de rubi
G|-----------------------------|
D|-----------------------------|
A|--3--3-2--2-0--0-------------|
E|-----------------1-----------|

Tal vez tu fuiste dimelo
G|-----------------------------|
D|-----------------------------|
A|--3--3-2--2------------------|
E|------------1-1-1-1-1-1------|

Ese recorte...
G|------------------|
D|------------------|
A|------------------|
E|--1-1-1-1-1-1-1-1-|

División ...
G|------------------|
D|------------------|
A|------------------|
E|--4-4-4-4-4-4-4-4-|

Cada frase...
G|------------------|
D|------------------|
A|------------------|
E|--3-3-3-3-3-3-3-3-|

Si cae...
G|------------------|
D|------------------|
A|--5-5-5-5-5-5-5-5-|
E|------------------|

No existen huellas y tu carta me nublo
G|----------------------------------------|
D|----------------------------------------|
A|--7-7-7-7-7-7---------------------------|
E|--------------1-1-1-1-3-3-3-3-3-3-3-3-3-|

solo
G|---------------------|
D|---------------------|
A|---------------------|
E|--5/0-5/0—--1/0—-1/0-|

Quien pudo...      tu...
G|----------------|---------------|
D|----------------|---------------|
A|--0-----0-----0-|-------2-----2-|
E|-----0-----0----|----0-----0----|

Fue una burla...
G|----------------|---------------|
D|----------------|---------------|
A|--0-----0-----0-|-------2-----2-|
E|-----0-----0----|----0-----0----|

Tal vez no  exista ante la duda un sueño
G|---------------------------------------|
D|---------------------------------------|
A|---------------------------------------|
E|--1-1-1-1-1-1-1-1-0-1-1-1-1-1-1-1-1----|

Cariño mi vida criatura de rubi
G|-----------------------------|
D|-----------------------------|
A|--3--3-2--2-0--0-------------|
E|-----------------1-----------|

Que puedo hacer...
G|-----------------------------|
D|-----------------------------|
A|--3--3-2--2------------------|
E|------------1-1-1-1-1-1------|

Esa ternura...
G|------------------|
D|------------------|
A|------------------|
E|--1-1-1-1-1-1-1-1-|

Aunque me muera...
G|------------------|
D|------------------|
A|------------------|
E|--4-4-4-4-4-4-4-4-|

Cada frase...
G|------------------|
D|------------------|
A|------------------|
E|--3-3-3-3-3-3-3-3-|

Si cae...
G|------------------|
D|------------------|
A|--5-5-5-5-5-5-5-5-|
E|------------------|

No existen huellas y tu carta me nublo
G|----------------------------------------|
D|----------------------------------------|
A|--7-7-7-7-7-7---------------------------|
E|--------------1-1-1-1-3-3-3-3-3-3-3-3-3-|

No aunque no deba suplicarte
G|-----------------------------|
D|-----------------------------|
A|--3--3-2--2-0----------------|
E|-----------------------------|

Ven dimelo otra vez
G|-----------------------------|
D|-----------------------------|
A|-----------------------------|
E|--2--2-1--1-3----------------|

No aunque tal vez deba indignarme
G|-----------------------------|
D|-----------------------------|
A|--3--3-2--2-0----------------|
E|-----------------------------|

Tu hazlo otra vez
G|-----------------------------|
D|-----------------------------|
A|-----------------------------|
E|--2--2-1--1-3----------------|

Y aunque se solo...  un guiño... 
G|------------------|-----------------|
D|------------------|-----------------|
A|------------------|-----------------|
E|-1-1-1-1-1-1-1-1-0|-1-1-1-1-1-1-1-1-|

Intentalo...
G|------------------|
D|------------------|
A|-----2-5----------|
E|-3-5--------------|

Antes de cada...     mi deseo es...
G|------------------|-----------------|
D|------------------|-----------------|
A|------------------|-----------------|
E|-1-1-1-1-1-1-1-1-0|-1-1-1-1-1-1-1-1-|

siiiiiiiiiiiiiiiiiiiiii
G|------------------------|
D|---------------2--3---7-|
A|-------2-3-5------------|
E|--3-5-------------------|

Quien pudo...      tu...
G|----------------|---------------|
D|----------------|---------------|
A|--0-----0-----0-|-------2-----2-|
E|-----0-----0----|----0-----0----|

Por clemencia...
G|----------------|---------------|
D|----------------|---------------|
A|--0-----0-----0-|-------2-----2-|
E|-----0-----0----|----0-----0----|

Quien pudo...      tu...
G|----------------|---------------|
D|----------------|---------------|
A|--0-----0-----0-|-------2-----2-|
E|-----0-----0----|----0-----0----|

Fue una burla...
G|----------------|---------------|
D|----------------|---------------|
A|--0-----0-----0-|-------2-----2-|
E|-----0-----0----|----0-----0----|

Tal vez no existas ante la duda un si
G|----------------|---------------|----|
D|----------------|---------------|----|
A|----------------|---------------|----|
E|-------1--------|--------1------|--5-|
Este fichero es trabajo propio de su transcriptor y representa su interpretación personal de la canción. El material contenido en esta página es
para exclusivo uso privado, por lo que se prohibe su reproducción o retransmisión, así como su uso para fines comerciales.

© LaCuerda.net · Aviso Legal · Privacidad