Acordes de Guitarra » E »Enrique Bunbury » El viento a favor (Tab)

El viento a favor
Enrique Bunbury

Letras, Notas, Punteos, Tablaturas y Acordes de Guitarra (Tabs & Chords)

  • Letra y Acordes
    G                 Bm
    Si ya no puede ir peor
                  Em
    has un ultimo esfuerzo
                        C         G
    espera que sople el viento a favor
                     Bm
    ya solo puede ir mejor
                    Em
    y esta cerca el momento
                        C         G
    espera que sople el viento a favor
    
    G    F#m                 Em        Am
    Otra vez te has vuelto a equivocar
            C           F#
    siempre piensas la culpa es de los demas
    Bm              Dm
    y no tienes mas remedio
           C       B     G
    
  • Letra y Acordes
    G                   Bm
     Si ya no puede ir peor
                     Em
    Haz un último esfuerzo
                          C/G       G
    Espera que sople el viento a favor
                      Bm
    Ya sólo puede ir mejor
                       Em
    Y está cerca el momento
                          C/G       G
    Espera que sople el viento a favor
    G      Bm                    Em
     Otra vez te haz vuelto a equivocar
    E7                            C/G
     Siempre piensas la culpa es de los demás
    G                  Bm
     Y no tienes más remedio
             Em       C/G
    Que de nuevo empezar
    
  • Tablatura
    esta es la version que del disco PEQUEÑO ya que el tab
    para bajo que mande es de la version que se escucha en el disco PEQUEÑO CABARET AMBULANTE
    
    la cancion es una de las mejores,empieza con un coro y
    la guitarra se escucha asi
    
    ------------------|-----------------|
    --3-5-5-5--3---3--|-3-5-5-5--3---3-5|
    -4-----------4---4|4-----------4----|
    ------------------|-----------------|
    ------------------|-----------------|
    ------------------|-----------------|
    
    ------------------|-----------------|---|
    --3-5-5-5--3---3--|-3-5-5-5--3---3-5|---|
    -4-----------4---4|4-----------4----|5-4|
    ------------------|-----------------|---|
    ------------------|-----------------|---|
    ------------------|-----------------|---|
    
    despues de esto entran los dos primeros versos pero no suena
    la guitara(en lo personal yo los toco igual que los versos 3 y 4)
    
    despues de esto entra el coro y la guitarra suena asi
    
    -----------------|----------------|
    --3-5-5-5--3---3-|-3-5-5-5--3---3-|
    -4---
  • Tab p/Bajo
    el bajo de esta cancion en este disco se escucha asi
    
    intro
    fig.1          fig.A   fig.2       fig.B
    -------------  -----  -----------  ---
    -------------  -----  -----------  ---
    -------------  -----  -----------  ---
    3-3-3-0-1-2-3  0-1-2  3-3-3-0-2-3  0-1
    
    empieza con un coro
    G     Bm    Em       C
    -----|-----|--------|-----|
    -----|-----|--------|-----|
    -----|-----|--------|-----|por 2 y despues la fig.2
    3-3-3|7-7-7|12-12-12|8-8-8|
    
    el bajo suena asi en los dos primeros versos
    
    -----------|---|---------------|-------|---------|
    -----------|---|---------------|-------|---------|
    -----------|---|---------------|-------|5-5-5-5-5|
    3-3-2-2-0-0|0-2|5-5-3-3-2-2-(4)|7-7-5-5|---------|
    
    (continuacion)
    ---------|-----|-----|
    ---------|-----|-----|
    3-3-3-3-3|2-2-2|2-0--|
    ---------|-----|----2|
    la nota fantasma (4) se escucha en el 2do. verso
    
     coro
    fig.3
    ------|------|---------|-----|
    ------|------|---------|-----|
    ------|------|---------|-----|por 2 y luego la
  • +
    ¡Colabora con nosotros!
    Envíanos tu versión de esta canción

Letra de El viento a favor
Si ya no puede ir peor
has un ultimo esfuerzo
espera que sople el viento a favor
ya solo puede ir mejor
y esta cerca el momento
espera que sople el viento a favor
Otra vez te has vuelto a equivocar
siempre piensas la culpa es de los demas
y no tienes mas remedio
que de nuevo empezar
Otra vez fuera de lugar
siempre estas donde no debes estar
muy cerca o muy lejos
no estas atento y se vuelve a escapar
Si ya no puede ir peor
has un ultimo esfuerzo
espera que sople el viento a favor
ya solo puede ir mejor
y esta cerce el momento
espera que sople el viento a favor
Otra vez perdiste tu oportunidad
siempre enfrendandote y al final
vencido por el miedo
caes al suelo y te dejas pisar
Si ya no puede ir peor
has un ultimo esfuerzo
espera que sople el viento a favor
ya solo puede ir mejor
y esta cerce el momento
espera que sople el viento a favor(2)
"Otra vez fuera de lugar
siempre estas donde no debes estar
muy cerca o muy lejos
no estas atento y se vuelve a escapar"
lo puede sustituir por otro que dice...
"Otra vez la has vuelto a fastidiar
siempre tienes que quedarte atras
todavia te queda un buen trecho
y les tienes que alcanzar"
Esto es debido a que hay dos versiones de
esta cancion y se presta a confuciones
justo en esta parte... Espero que les haya
servido esto y disfruten de la musica...bye



© LaCuerda.net · Aviso Legal · Privacidad