Tablatura para Guitarra de Enrique Bunbury: Aunque no sea conmigo
Conexión · Inscripción
Letras y Acordes
Pantalla Completa
Imprimir
Versión Texto
Añadir Favorito
Otras Versiones

Mostrar Diagramas
Desfile Automático
Manipular Acordes
Formato del Texto


Aunque no sea conmigo(TAB)

Enrique Bunbury

calidad:
enri0561
AUTOR: Celso piña
ALBUM: desconocido
Enviado por alejandro
Hola esta es mi primer tab y bueno le agregue un intro que suena similar
a la version original dudas pregunten se acepta todo tipo de reclamo
ale_cena05@hotmail.com
INTRO:

e|---------------3-----------|-----------------|
B|------------7--3-----------|-----------7-----|
G|--------7------4---4-4h5-4-|-------7------0--|
D|--------7---7--5--5-5------|-------7---7--2--|
A|--------5-5----5-----------|-------5-5----2--|
E|--3-4-5--------3-----------|-3-4-5--------0--|

e|--------------3-----------|----------------------|
B|-----------7--3-----------|-----------7----------|
G|-------7------4---4-4h5-4-|-------7--------------|
D|-------7---7--5--5-5------|-------7---7--9-------|
A|-------5-5----5-----------|-------5-5----7-------|
E|-3-4-5--------3-----------|-3-4-5----------8-7-0-|


Em A placer,
Am D7 Em puedes tomarte el tiempo necesario
Am D7 G que por mi parte yo estare esperando
Cmaj7 F#m el día en que te decidas a volver
B7 y ser felíz como antes fuimos
Em Se muy bien
Am D7 Em que como yo estaras sufriendo a diario
Am D7 G la soledad de dos amantes que al dejarse
Cmaj7 F#m estan luchando cada quíen
B7 por no encontrarse... x2
Am Y no es por eso
D7 D G que haya dejado de quererte un solo día
Cmaj7 F#m estoy contigo aunque estes lejos de mi vida
B7 por tu felicidad
Em-E7 a costa de la mia...
Am Pero si ahora tienes
D7 tan solo la mitad
D G del gran amor que aún te tengo
Cmaj7 F#m puedes jurar que al que te quiere lo bendigo
B7 quiero que seas felíz
Em E7 aunque no sea conmigo
Cmaj7 e|-3- B|-5- G|-4- D|-5- A|-3- E|---
Este fichero es trabajo propio de su transcriptor y representa su interpretación personal de la canción. El material contenido en esta página es
para exclusivo uso privado, por lo que se prohibe su reproducción o retransmisión, así como su uso para fines comerciales.

© LaCuerda.net · Aviso Legal · Privacidad