Acordes de Guitarra » E »Elefante » La Condenada (Tab)

La Condenada
Elefante

Letras, Acordes y Tabs para Guitarra, Bajo y Ukulele

  • e|--------------------------------------------------
    B|--------------------------------------------------
    G|--------------------------------------------------  X3
    D|--------------------------------------------------
    A|-(8)-(8)-(8)-(8)----------------------------------
    E|-----------------(8)-(8)-(8)-(8)-(3)-(3)-(3)-(3)--
    
    e|----------------------------------------------------------------
    B|----------------------------------------------------------------
    G|----------------------------------------------------------------
    D|----------------------------------------------------------------
    A|-(8)-(8)-(8)-(8)-------------------------------------------------
    E|------------------(8)-(8)-(8)-(8)--(3)-(3)-(3)-(3)--3-3-3-3-5-5-5-
    
    
    ===================================/
    e|-------------------------        /
    B|-------------------------        /
    G|-------------------------        /
    D|-------5-3--------------- Riff 1 /
    
  • +
    ¡Colabora con nosotros!
    Envíanos tu versión de esta canción






[La Condenada chords][La Condenada cifra]
© LaCuerda.net · aviso legal · privacidad · es · en · pt · contacto
DINAMICO