Acordes de Guitarra » E »Elefante » Contigo (Tab)

Contigo
Elefante

Letras, Acordes y Tabs para Guitarra, Bajo y Ukulele

  • E                         B
    Dame lo que esconde tu mirada
       A               E               B
    y te doy el lado izquierdo de mi pecho
    E                         B
    dame lo que se te de la gana
      A                E                B
    a tus pies el mundo entero por un beso
    
    CORO:
    C#m             A            E
    te regalo toda la luz de la luna
                   B                  F#m
    mi pasado mi fortuna mi futuro mi razón
    A                               E
    esta noche no la cambio por ninguna
                          B             F#m
    si esta vida es solo una contigo sabe mejor,
    
    
    
  • E                         B
    Dame lo que esconde tu mirada
       A               E               B
    y te doy el lado izquierdo de mi pecho
    E                         B
    dame lo que se te de la gana
      A                E                B
    a tus pies el mundo entero por un beso
    
    CORO:
    C#m             A            E
    te regalo toda la luz de la luna
                   B                  F#m
    mi pasado mi fortuna mi futuro mi razón
    A                               E
    esta noche no la cambio por ninguna
                          B             F#m
    si esta vida es solo una contigo sabe mejor,
    
    
    
  •  E           Esus4  E    Bsus4   B
    Dame lo que esconde tu mirada
          A9           E            B    /    Bsus4    B
    y te doy el lado izquierdo de mi pecho.
     E           Esus4  E    B9     ( Bo-B5/9-B )
    Dame lo que se te de la gana,
            A9           E              Bsus4   B  B9
    a tus pies el mundo entero por un beso.
    
    
          C#m      A9            E
    Te regalo toda la luz de la luna,
                      Bsus4/B                   A9
    mi pasado, mi fortuna,     mi futuro, mi razón.
          C#m         A9          E
    Esta noche no la cambio por ninguna,
                       Bsus4/B       B9        A9
    si esta vida solo una,     contigo sabe mejor.
                 A               B               C#m
    He - e - y - e...  hey - e - e... y - e - e -he
    
  • Esta Es La Tablatura del Intro de La Canción de Elefante CONTIGO
    Espero Que Les Agrade y Les Sea de Mucha Ayuda
    
    Saludos!!
    
    
    
    E|----4----------------4----------------------------0------|
    B|------------0------------------0-------------------------|
    G|--------2------2----------2--------2---------------------|
    D|----0----------------0-----------------------------------|
    A|---------------------------------------------------------|
    E|---------------------------------------------------------|
    
    
    E|----2--------------------2------------------------0------|
    B|--------------0--------------------0---------------------|
    G|---------2--------2-----------2---------2----------------|
    D|----0--------------------0-------------------------------|
    A|---------------------------------------------------------|
    E|---------------------------------------------------------|
    
    
    
    E|---------------------------------------------------------|
    B|----4--------------------5----------------------4--------|
    G|------------
  • E|----4----------------4----------------------------0------|
    B|------------0------------------0-------------------------|
    G|--------2------2----------2--------2---------------------|
    D|----0----------------0-----------------------------------|
    A|---------------------------------------------------------|
    E|---------------------------------------------------------|
    
    E|----2--------------------2------------------------0------|
    B|--------------0--------------------0---------------------|
    G|---------2--------2-----------2---------2----------------|
    D|----0--------------------0-------------------------------|
    A|---------------------------------------------------------|
    E|---------------------------------------------------------|
    
    E|---------------------------------------------------------|
    B|----4--------------------5------------------------------|
    G|-----------0--------------------0-------------------------|
    D|--------2-----2--------------0-----0--------------------|
    A|----0--------------------0-------------------------------|
    E|---------------------------------------------------------|
    
  • +
    ¡Colabora con nosotros!
    Envíanos tu versión de esta canción

Letra de Contigo
Dame lo que esconde tu mirada
y te doy el lado izquierdo de mi pecho
dame lo que se te de la gana
a tus pies el mundo entero por un beso
te regalo toda la luz de la luna
mi pasado mi fortuna mi futuro mi razón
esta noche no la cambio por ninguna
si esta vida es solo una contigo sabe mejor,
Eh, eh , eh
dame el universo de tu cama
y te doy mi vida entera y mucho mas
dame alguna de tus madrugadas
y te doy mi corazon por la mitad
te regalo toda la luz de la luna
mi pasado mi fortuna mi futuro mi razón
esta noche no la cambio por ninguna
si esta vida es solo una contigo sabe mejor,
dame una esperanza dame noches que no acaban
un beso robado un pecado una cancion
y no digas nada semi luz de madrugada
mis latidos mis sentidos mi respiración
eh eh eh, eh eh eh eh eh, eh eh
ESTA CANCION SE LA QUIERO DEDICAR AL AMOR DE MI VIDA:
LUISA ALEJANDRA,GRACIAS POR TODO LO BONITO DE TI,TE QUIERO.
cualquier duda o sugerencia,por favor escribanme a mi email:
selbor33@hotmail.com
LUISA ALEJANDRA TE AMO.




[Contigo chords][Contigo cifra]
© LaCuerda.net · aviso legal · privacidad · es · en · pt · contacto