Acordes de Guitarra » E »Elefante » Sabor a chocolate (Tab)

Sabor a chocolate
Elefante

Letras, Acordes y Tabs para Guitarra, Bajo y Ukulele

  • E-----------------------------------------------
    B-----------------------------------------------
    G-----------0-3-0-0-3---------------------------
    A-0-3-0-0-3-------------------------------------
    E---------------------0-4-0-0-4-5-5-4-4-3-3-2-2-
    
    
    
     Am                    Dm
    tienes unos ojos que me invitan a probarte
      E7                 Am
    piel de duraznillo corazón de chocolate
                              Dm
    alma de manzana que me invita al paraíso
          E7                       Am
    y un par de melones porque Dios así lo quiso
                  Dm     E7             Am
    porque te fuiste cuando es que volveras
                  Dm        E7              F      G
    que cosa me diste, que no te podido olvidar.
    
  •             Am        Dm           E7          Am
    
    E/6ta |___________|___________|_0_4_0_4_0_|_55_44_33_22_|
    A/5ta |_0_3_0_3_0_|___________|_2_2_2_2_2_|_55_44_33_22_|
    G/4ta |_2_2_2_2_2_|_0_3_0_3_0_|___________|_____________|
    D/3ra |___________|_2_2_2_2_2_|___________|_____________|
    B/2da |___________|___________|___________|_____________|
    e/1ra |___________|___________|___________|_____________|
    
    Intro: Am Dm E7 Am x2
    
     Am                       Dm
    Tienes unos ojos que me invitan a probarte
     E7                    Am
    Piel de duraznillo corazón de chocolate
    Am                      Dm
    Alma de manzana que me invita al paraíso
    E7                         Am
    Y un par de melones porque Dios así lo quiso
    
    
  • E------------------------------------------------------------|
    B------------------------------------------------------------|
    G-----------------2-2--2-2-2---------------------------------|
    D-----2-2--2-2-2--0-3--0-0-3---------------------------------|
    A-----0-3--0-0-3--------------2-2--2-2-2---------------------|
    E-----------------------------0-4--0-0-4----5-5--3-3--1-1--0-|
    (guitarra 2 toca riff 1 mientras guitarra 1
    toca Lam, Rem, Mi, Lam x2)
    riff 1
    E-----5--5----8--8----7--7-----5--5---------------------|
    B-----5--5----5--5----9--9-----5--5---------------------|
    G-----5--5----5--5----9--9-----5--5---------------------| X2
    D-----7--7----7--7----7--7-----7--7---------------------|
    A-------------------------------------------------------|
    E-------------------------------------------------------|
    riff 2
    E--------------------------------------------|
    B--------------------------------------------|
    G--------------------------------------------|
    D--------------------------------------------|
    
  • 1. ---------------------------------------------------------|
    2. ---------------------------------------------------------|
    3. --------------2-2-2--2-2-2-------------------------------|
    4. -2-2-2--2-2-2-0-3-0--0-3-0-------------------------------|
    5. -0-3-0--0-3-0--------------2-2-2--2-2-2--0-0-------------|
    6. ---------------------------0-3-0--0-3-0------3-3-1-1-0-0-|
    
    
    -Gtrra. Eléctrica:
    
    1. --------------5-5-5-5-5-8-8-8-8-8-8-7-7-7-7-7-5-5-5-5-5-5-|
    2. --------------5-5-5-5-5-5-5-5-5-5-5-7-7-7-7-7-5-5-5-5-5-5-|
    3. --------------5-5-5-5-5-5-5-5-5-5-5-9-9-9-9-9-5-5-5-5-5-5-|
    4. -Pick Slide-----------------------------------------------|
    5. ----------------------------------------------------------|
    6. -24\-------------------------------------------------|
    
    1. -5-5-5-5-5-8-8-8-8-8-8-7-7-7-7-7-5-5-5-5-5-5-|
    2. -5-5-5-5-5-5-5-5-5-5-5-7-7-7-7-7-5-5-5-5-5-5-|
    3. -5-5-5-5-5-5-5-5-5-5-5-9-9-9-9-9-5-5-5-5-5-5-|
    
  • E|----------------------------------0--3--0--0-3-0-----3-3-1-1-0-0--|
    A|--0--3--0--0-3-0------------------2--2--2--2-2-2--0-0-------------|
    D|--2--2--2--2-2-0--0--3--0--0-3-0----------------------------------|
    G|------------------2--2--2--2-2-2----------------------------------|
    B|------------------------------------------------------------------|
    E|------------------------------------------------------------------| x2
    
    Este RIFF es lo mismo que hacer Am Dm E7 con bajeo
    pero agregándole un adorno al final.
    Este RIFF se escucha idéntico al original,
    pero si son principiantes y les resulta complicado
    hacerlo pueden hacer este otro RIFF que es mucho más fácil
    y no se escucha tan diferente al original.
    
    RIFF 2
    
    E|----------------------------------0--3--0--0-3-0-----3-3-1-1-0-0--|
    A|--0--3--0--0-3-0----------------------------------0-0-------------|
    D|------------------0--3--0--0-3-0----------------------------------|
    G|------------------------------------------------------------------|
    
  • Intro
    S |----------------|----------------|----------------|------------f---|
    B |----------------|----------------|----------------|----------oo--o-|
       1 + 2 + 3 + 4 +  1 + 2 + 3 + 4 +  1 + 2 + 3 + 4 +  1 + 2 + 3 + 4 +
    
    C |X---------------|----------------|----------------|----------------|
    H |--x-x-x-x-x-x-x-|x-x-x-x-x-x-x-x-|x-x-x-x-x-x-x-x-|x-x-x-x-x-x-x-x-|
    S |----o-------o---|----o-------o---|----o-------o---|----o-------o-o-|
    B |o-------o-------|o-------o-------|o-------o-------|o-------o-------|
       1 + 2 + 3 + 4 +  1 + 2 + 3 + 4 +  1 + 2 + 3 + 4 +  1 + 2 + 3 + 4 +
    
    H |x-x-x-x-x-x-x-x-|x-x-x-x-x-x-x-x-|x-x-x-x-x-x-x-x-|x-x-x-x-x-------|
    S |----o-------o---|----o-------o---|----o-------o---|----o-----OOO-OO|
    B |o-------o-------|o-------o-------|o-------o-------|o-------o-------|
       1 + 2 + 3 + 4 +  1 + 2 + 3 + 4 +  1 + 2 + 3 + 4 +  1 + 2 + 3 + 4 +
    
    1er Verso
    C |X---------------|----------------|----------------|----------------|
    H |--x-x-x-x-x-x-x-|x-x-x-x-x-x-x
  • +
    ¡Colabora con nosotros!
    Envíanos tu versión de esta canción

Letra de Sabor a chocolate
tienes unos ojos que me invitan a probarte
piel de duraznillo corazón de chocolate
alma de manzana que me invita al paraíso
y un par de melones porque Dios así lo quiso
porque te fuiste cuando es que volveras
que cosa me diste, que no te podido olvidar.
eres un tesoro escondido entre mi cama
lluvia por la noche, solecito en la mañana
aguita de coco, sirena en la playa
mi sal, mi pimienta, mi niña mimada.
porque te fuiste cuando es que volveras
que cosa me diste, que no te podido olvidar.
DESPUES DE ESTO TOCA LA SEXTA CUERDA EN EL 12º TRASTE YMIENTRAS
SUENA ARRASTRAN RAPIDO EL DEDO HASTA EL PRIMER TRASTE, DESPUES
SIGUEN CON ESTO:
llevame
llevame a la luna
llevame
como tú ninguna.
me gusta vivir, me gusta soñar
que puedo pedir si he nacido pa´gozar
tu boca es mi vicio, tu amor mi aeropuerto
y mi pasaporte pa´subir al cielo.
porque te fuiste cuando es que volveras
que cosa me diste, que no te podido olvidar.
llevame.....................................




[Sabor a chocolate chords][Sabor a chocolate cifra]
© LaCuerda.net · aviso legal · privacidad · es · en · pt · contacto