Tablatura para Guitarra de Elefante: La Condenada
Conexión · Inscripción
Letras y Acordes
Pantalla Completa
Imprimir
Versión Texto
Añadir Favorito
Otras Versiones

Mostrar Diagramas
Desfile Automático
Manipular Acordes
Formato del Texto


La Condenada(TAB)

Elefante

calidad:
elft0291
AUTOR: Elefante  corregir
ALBUM: desconocido
Enviado por Alejandro
Espero que les guste este Tab se lo dedico a una 
condenada que me a echo la vida imposible siempre
pienso en ella y creo que le va a esta cancion, si 
a ti Maribel Mendiola.

y saludos a Ana, Kaemy, Claudia, Mitchell, Jesus y a Igor
y a los nacos de chilangolandia.

Intro
() Palm Muted

e|--------------------------------------------------
B|--------------------------------------------------
G|--------------------------------------------------  X3
D|--------------------------------------------------
A|-(8)-(8)-(8)-(8)----------------------------------
E|-----------------(8)-(8)-(8)-(8)-(3)-(3)-(3)-(3)--

e|----------------------------------------------------------------
B|----------------------------------------------------------------
G|----------------------------------------------------------------
D|----------------------------------------------------------------
A|-(8)-(8)-(8)-(8)-------------------------------------------------
E|------------------(8)-(8)-(8)-(8)--(3)-(3)-(3)-(3)--3-3-3-3-5-5-5-


===================================/
e|-------------------------        /
B|-------------------------        /
G|-------------------------        /
D|-------5-3--------------- Riff 1 /
A|-------------3-1~~~~-----        /   
E|-------------------------        /
===================================/


===================================/
e|-------------------------        /
B|-------------------------        /
G|-------------------------        /
D|------3p5-3p5------------ Riff 2 /
A|---------------3~~~------        /   
E|-------------------------        /
===================================/

===================================/
e|-7-7-7-8-8-7-7-7-8-8-7---        /
B|-8-8-8-8-8-8-8-8-8-8-8---        /
G|-7-7-7-7-7-7-7-7-7-7-7---        /
D|------------------------- Riff 3 /
A|-------------------------        /   
E|-------------------------        /
===================================/


F C G No tuve palabras cuando te perdí,
F C G la luna discreta guardaba silencio
F C G abrí las ventanas, no estabas ahí
F C G demasiado tarde mi arrepentimiento.
F C G No sé dónde estas pero sigues aquí,
F C G en medio de todo, durmiendo en mis sueños
F C G y sé que el destino se burla de mí,
F C G que puedo decirle si me lo merezco.
Am C F G e|------------------------- B|------------------------- G|------------------------- D|-7-7--5-5--3-3--3-3------ Esto es en Palm Muted A|-7-7--5-5--3-3--3-3------ E|-5-5--3-3--1-1--5-5------
Am C Esta absurda soledad,
F G no te deja de pensar.
F C G Dónde está mi suerte a dónde van tus pasos,(Riff 1)
F C G dónde están los besos que nunca te di (Riff 2)
F C G dónde está el olvido dónde está el fracaso,(Riff 1)
F C G bendita la noche en que te conocí.
F C G Mis cuatro paredes preguntan por tí,(Riff 3)
F C G no sé que decirles y lloro en silencio(Riff 3)
F C G y las madrugadas me saben a ti,(Riff 3)
F C G qué amarga condena la que estoy viviendo.(Riff 3)
Am C Esta absurda soledad,
F G no te deja de pensar.
F C G Dónde está mi suerte a dónde van tus pasos,(Riff 1)
F C G dónde están los besos que nunca te di (Riff 2)
F C G dónde está el olvido dónde está el fracaso,(Riff 1)
F C G bendita la noche en que te conocí. El solo es muy parecido al Riff 3 pero creo que el trasto 12
Este fichero es trabajo propio de su transcriptor y representa su interpretación personal de la canción. El material contenido en esta página es
para exclusivo uso privado, por lo que se prohibe su reproducción o retransmisión, así como su uso para fines comerciales.

© LaCuerda.net · Aviso Legal · Privacidad