Acordes de Guitarra » E »Elefante » Mentirosa (Tab)

Mentirosa
Elefante

Letras, Acordes y Tabs para Guitarra, Bajo y Ukulele

  •                  C#m               B
    Qué le vamos a hacer si la vida es así
            A                      G#7
    le aposte todo a tus besos y así todo o perdí
                 C#m                   B
    no me pidas perdón que ni tú te lo crees
          A                       G#
    esas lagrimas son falsas como falso fue tu amor
    
    
    B                            C#m
    Pero no me digas nada que el tonto he sido yo
           A                        E
    si la luna no es de queso ni la nubes de algodón
    
         B           C#m
    Mentirosa, traicionera
           A                     E
    y yo que daba por ti la vida entera
          B         C#m
    
  •                   C#m                B
    Que le vamos a hacer, si la vida es así,
            A                        G#
    le aposté todo a tus besos, y así todo lo perdí.
    
    No me pidas perdón, que ni tú te lo crees,
    esas lágrimas son falsas, como falso fue tu amor.
    
    PRE
    B                             C#m
    Pero no me digas nada que el tonto he sido yo,
           A                         E
    si la luna no es de queso, ni las nubes de algodón.
    
    Para que seguir con cuentos con amores de ficción,
    si tu boca no es de fresa, ni en tus ojos sale el sol.
    
    CORO 1
         B            C#m
    Mentirosa, traicionera,
    
  • ---InTrO---
    
    E|--------------------------|
    B|--------------------------|
    G|--6-6---4--6-6-6---4------|(SE REPITE 3 VECEZ MAS)
    D|------6----------6--------|(Se AcOmPañA CoN C#m)
    A|--------------------------|
    E|--------------------------|
    
    (DESPUES SIGUE ESTA PARTE)
    E|--------------------------|
    B|--------------------------|
    G|--------------------------|
    D|----2-4-4/5-4-2-----2-----|
    A|--4-------------4-2---4---|
    E|--------------------------|
    
    
                      C#m               B
    Que le vamos a hacer si la vida es asi
    
  • B/-------------------------------I
    G/-------------------------------I    x4
    D/-------------------------------I
    A/--4---4---------4--4--4--------I
    E/--------4--7------------7--4---I
    
    
    E/----------------------------------I
    B/----------------------------------I
    G/----------------------------------I
    D/-----2--4--4s5--4--2--------2-----I
    A/--4-------------------4--2-----4--I
    E/----------------------------------I
    
                      C#m                B
    Que le vamos a hacer si la vida es asi
            A                        Ab
    le aposte todo a tus besos y asi todo o perdi
                  C#m                 B
    no me pidas perdon que ni tu te lo crees
    
  • D|---------------------------------4-4h5----------------
    A|---4--4-----4-4-4------(x4)--4-7--------7-4-----7-4---
    E|--------4-7-------4-7------------------------7--------
    
    
    C#m                            B
    Que le vamos a hacer, si la vida es así
        A                              G#7
    le aposté todo a tus besos y así todo lo perdí
             C#m                  B
    no me pidas perdón que ni tu te lo crees
        A                      G#7
    esas lagrimas son falsas como falso fue tu amor
    
    
       B                         C#m
         pero no me digas nada que el tonto eh sido yo
    
    D|---------------------------------------------
    A|-2-2-------2-2-2--------4-4---2-2---4-4-4----
    
  • esta es mi primera transcripcion espero ke este bien y
    ke les guste... bueno pues hay les va
    
    intro
    (entras junto con la bataka)
    E---------4--------4----------------------------
    A-9/4-4-4---2--4-4---2-4--4-----------4-2---4---
    D---------------------------2-4-5-4-2-----2-----
    G-----------------------------------------------
    
    Versos
    ke le vamos a hacer ...
      C#          B           A         Ab
    E-------------------------5-9---5-9-4-8---4-8---
    A-4-7---4-7---2-6---2-6-------7---------6----6--
    D-----6-----6-----4-----4-----------------------
    G-----------------------------------------------*2
    
    pre-coro
    pero no me digas nada ke el tonto he sido yo...
      B                C#               A               E
    E-----2-5-----2-5------4-7-----4-7--5-5-2-3-5-5-2-3-0-0-2-0
    A-2-2-----2-2------4-4-----4-4-----------------------------
    D----------------------------------------------------------
    G----------------------------------------------------------*2
    
    coro
    mentirosa, traicion
  • +
    ¡Colabora con nosotros!
    Envíanos tu versión de esta canción

Letra de Mentirosa
Qué le vamos a hacer si la vida es así
le aposte todo a tus besos y así todo o perdí
no me pidas perdón que ni tú te lo crees
esas lagrimas son falsas como falso fue tu amor
Pero no me digas nada que el tonto he sido yo
si la luna no es de queso ni la nubes de algodón
Mentirosa, traicionera
y yo que daba por ti la vida entera
Mentirosa, embustera
basta ya de tanto ruido
este cuento se acabo
ah ah ah ah ah ah aah X2
Para que decir más, si todo termino
todo lo que sube baja, todo lo que viene va
no me pidas perdón que ni tú te lo crees
vete por donde llegaste y ojala te vaya bien
Para que seguir con cuentos, con amores de ficción
si tu boca no es de fresa ni en tus ojos sale el sol
Mentirosa, traicionera
y yo que daba por ti la vida entera
Mentirosa, embustera
basta ya de tanto ruido
este cuento se acabo
ah ah ah ah ah ah aah X2
"Intermedio"
Mentirosa, traicionera
y yo que daba por ti la vida entera
Mentirosa, embustera
yo contigo no regreso
aunque me muera no, no
Mentirosa, traicionera
y yo que daba por ti la vida entera
Mentirosa, embustera
basta ya de tanto ruido
este cuento se acabo
ah ah ah ah ah ah aah X4 "y termina en" C#m




[Mentirosa chords][Mentirosa cifra]
© LaCuerda.net · aviso legal · privacidad · es · en · pt · contacto