Acordes de Guitarra » E »Elefante » La que se fue (Tab)

La que se fue
Elefante

Letras, Acordes y Tabs para Guitarra, Bajo y Ukulele

  • C                  A#
    Todo lo que yo buscaba
              Dm
    Estaba en ella
    C     Gm       F
    Pero desaparecio
    Gm     F           C          Dm
    Un mal dia sin pensarlo se largo
             F                 Am             C
    Como quisiera que no me doliera esta cancion
    
    Hay, hay, hay
           A #
    Si supiera
    
    Hay, hay, hay
    
    D m             F            C
    Que me esta llevando la tristeza
    D m              F            C
    
  • C                 Gm
    todo lo que yo buscaba
           Dm
    Estaba en ella
    C   Gm        F
    Pero desaparecio
    Gm      F          C          Dm
    Un mal dia sin pensarlo se largo
             F                  Am              C    
    Como quisiera,  que no me doliera esta canción
                        A#  
    Hay, hay, hay si supiera hay,hay,hay
    
    CORO:
    
    Dm              F             C
    Que me esta llevando la tristeza
    Dm               F            C
    Que me estoy bebiendo este dolor
    Gm           F              Am
    
  • C                 A#
    todo lo que yo buscaba
           Dm
    Estaba en ella
    C   Gm        F
    Pero desaparecio
    Gm      F          C          Dm
    Un mal dia sin pensarlo se largo
             F                  Am              C    
    Como quisiera,  que no me doliera esta canción
                        A#  
    Hay, hay, hay si supiera hay,hay,hay
    
    CORO:
    
    Dm              F             C
    Que me esta llevando la tristeza
    Dm               F            C
    Que me estoy bebiendo este dolor
    Gm           F              Am
    
  • Intro:
    |-----------3-5-3------3------2-----5----8----11-|
    |---------3------6-3---3-----1-----4----7----10--|
    |-------3-----------3--3----2-----5----8----11---|
    |-----3----------------3---1-----4----7----10----|
    |---3------------------3-------------------------|
    |-3--------------------3-------------------------|
    
                              y que me traigan mas botellas
    |-----------3-5-3------3--------------------------------3-----|
    |---------3------6-3---3-------------------------------4-4-4--|
    |-------3-----------3--3------------------------------5---5---|
    |-----3----------------3-----------------------------5--------|
    |---3------------------3----------------------------3---------|
    |-3--------------------3--------------------------------------|
    
        para quitarme este sabor de su sudor
    |-------------2-------2-------------3-5-3------3--|
    |----------1-----1------1---------3------6-3---3--|
    |-------2-----------2-----------3-----------3--3--|
    |----0----------------------
  • |---0---1---3-|---1---0--|---1---3---5-|---3---1---|
    |-------------|----------|-------------|-----------|
    |-0---2---4---|-2---0----|-2---4---5---|-4---2-----|
    |-------------|----------|-------------|-----------|
    |-------------|----------|-------------|-----------|
    |-------------|----------|-------------|-----------|
    
    Verso 1
        
      C                         A#                        Dm 
    |-----0------------0-----|--------------------------|-----1---1---0---|-------1--|
    |-----1------------1-----|------3--------------3----|-----3-----------|--3----3--|
    |-----0------------0-----|------3--------------3----|-----2-0---0---2-|-------2--|
    |------------------------|------3--------------3----|--0--------------|----------|
    |-3----------------------|--1-----------------------|-----------------|-----0----|
    |-----------3------------|--------------1-----------|-----------------|----------|
      Todo lo  que   yo  buscaba         estaba   en   ella 
    
      C                      Gm               F
    |-----0------------0-----|---------------|--------5---3---|-1-----------|
    
  • e|---0-----1-----3------------1-----0-----|
    B|----------------------------------------|
    G|-0-----2-----4------------2-----0-------|
    
    e|---1-----3--------5-------3--------1----|
    B|----------------------------------------|
    G|-2-----4--------5-------4--------2------|
    
     C                 A#  
    Todo lo que yo buscaba
              Dm
    Estaba en ella
    e|---1-----0-----------|
    B|----------------3----|
    G|-2-----0------2------|
    
    C     Gm        F
    Pero desaparecio
    e|---5-----3-----1-----|
    B|---------------------|
    
  • CORO
    G|--------------------|--------------------|-------------------|-----|
    D|--------------------|--------------------|-------------------|-----|
    A|-5-5------3-3-2-3-3-|-5-5------3-3-2-3-3-|-------------------|-3-3-|
    E|-----1-1-1----------|-----1-1-1----------|-3-3-1-1-5-5-3-5-5-|-----|
    
    VERSO 1
    G|-------------------|-----------------|-----------------|-------------------|-------------|
    D|-------------------|-----5-5---------|-5-5-------------|-------------------|-------------|
    A|-3-3-----5-5-3-5-5-|-3-3-----5-5-3-5-|---------3-3-5-5-|-----0-0-3-3-2-3-3-|-1-1-1-1-1-1-|
    E|-----6-6-----------|-----------------|-----1-1---------|-1-1---------------|-------------|
    
    CORO
    
    SOLO
    G|---------------------------------------------------------------|--------------------------|
    D|---------------------------------------------------------------|--------------------------|
    A|------------------3-2-3-3--3-2-3-3-----------------------------|-----------3-3-3-3-3-3-3-3|
    E|-3-1-3-3--3-1-3-
  • +
    ¡Colabora con nosotros!
    Envíanos tu versión de esta canción

Letra de La que se fue
Todo lo que yo buscaba
Estaba en ella
Pero desaparecio
Un mal dia sin pensarlo se largo
Como quisiera que no me doliera esta cancion
Hay, hay, hay
Si supiera
Hay, hay, hay
Que me esta llevando la tristeza
Que me estoy bebiendo este dolor
Que mi vida ya esta casi muerta
Hay, hay, hay
Si supiera
El destino me cobro mas de la cuenta
No me tuvo compasión
Y aunque dicen que de amor nadie se enferma
Como quisiera que no me doliera esta canción
Hay, hay, hay
A # -/- A # con Estr. de F.
Si supiera
Que me esta llevando la tristeza
Que me estoy bebiendo este dolor
Que mi vida ya esta casi muerta
Hay, hay, hay
Si supiera
Yo la llevo
A donde voy
Como quisiera que no me doliera esta cancion
Hay, hay, hay
A # -/- A # con Estr. de F.
Si supiera
Que me esta llevando la tristeza
Que me estoy bebiendo este dolor
Que mi vida ya esta casi muerta
Hay, hay, hay
Si supiera
Hay, hay, hay
Si supiera (Para terminar la canción)




[La que se fue chords][La que se fue cifra]
© LaCuerda.net · aviso legal · privacidad · es · en · pt · contacto