Acordes de Guitarra » C »Charly García » Piano bar (Tab)

Piano bar
Charly García

Letras, Acordes y Tabs para Guitarra, Bajo y Ukulele

  • E ------------------------------------------------------------------------
    B 1--6--4--3--1--3--1--0-----------1--6--4--3--1--3--1--0-----------------
    G ------------------------2--0--2--------------------------2--0--2--4--2--
    D ------------------------------------------------------------------------
    A ------------------------------------------------------------------------
    E ------------------------------------------------------------------------
    
    
    E ----------------------------------------------------------
    B 1--6--4--3--1--3--1--0------------1--6--4--3--1--3--2--1--
    G ------------------------2--0--2---------------------------
    D ----------------------------------------------------------
    A ----------------------------------------------------------
    E ----------------------------------------------------------
    
    
    
    Em7                           F7
    Rubias de New York, fantasmas de percal.
    Em7                                 F7
    
  • e----|--------|--------|--------|--------|--------|----------|
    B----|--------|--------|--------|--------|--------|----------|
    G----|-----0--|--------|--2--0--|-----2--|-----0--|----------|
    D-0--|-3------|--0--3--|--------|--0-----|--3-----|--0-3-2---|
    A----|--------|--------|--------|--------|--------|----------|
    E----|--------|--------|--------|--------|--------|----------|
    
    e------3--1--|--0------0--------0--|--------|
    B------------|-----3---------3-----|-----3--|
    G---0--------|------------5--------|--5-----|
    D------------|---------------------|--------|
    A------------|---------------------|--------|
    E------------|--0------------------|--3--5--|
    
    e------3--1--|--0------0--------0--|--------0-------|
    B------------|-----3---------3-----|-----3------3---|
    G---0--------|------------5--------|--5-------------|
    D------------|---------------------|----------------|
    A------------|---------------------|--0-------------|
    E------------|--0------------------|------------5---|
    
  • +
    ¡Colabora con nosotros!
    Envíanos tu versión de esta canción

Letra de Piano bar
Rubias de New York, fantasmas de percal.
Presten atención, se ha abierto un piano bar.
¿Será que nací en el sur?
¿Será que encendí la luz de tu amor?
Viudas de neón, amantes de Gardel.
Suena un bandoneón cerca de un cabaret.
¿Será que nací en el sur?
¿Será que encendí la luz de tu amor?
Los chicos tienen un lugar
donde viven esas cosas que asombran.
Los chicos tienen un lugar
donde ir a conversar.
Usa tu rubor, encoje tu disfraz.
Pluma de gorrión, sonrisa de zorzal
Coloca – vitrina – al – sur.
Reloca – Titila – luz,
Los chicos tienen un lugar...




[Piano bar chords][Piano bar cifra]
© LaCuerda.net · aviso legal · privacidad · es · en · pt · contacto