Acordes de Guitarra » C »Charly García » Nos siguen pegando abajo (Tab)

Nos siguen pegando abajo
Charly García

Letras, Acordes y Tabs para Guitarra, Bajo y Ukulele

  • |--3-3--3-3-3--0-0-0--0-0--|
    |--3-3--2-2-2--2-2-2--0-0--|
    |--0-0--3-3-3--2-2-2--1-1--|
    |--0-0--0-0-0--2-2-2--2-2--|
    |--2-2---------0-0-0--2-2--|
    |--3-3----------------0-0--|
       G    D      A      E
    v = se rasguea hacia abajo
    ^ = se rasguea hacia arriba
    
    Intro: G  D  A  E x4
    
    Estrofa:
    G              D
    Ella es menor, él es normal
       A
    y lo que están haciendo
             E
    es un pecado mortal.
    G             D
    
  • Intro:[E  G  D  A  E] x4
    
    G              D
    Ella es menor, él es normal
       A
    y lo que están haciendo
             E
    es un pecado mortal.
    
    Ella se quedó sin boda ni arroz
    y al novio lo agarraron
    entre muchos más que dos.
    
               C9                     G9
    Miren lo están golpeando todo el tiempo,
       D7/B                    E   D
    lo vuelven, vuelven a golpear.
        C9     G9       Dsus4
    Nos siguen pegando abajo.
    
    
  • SOL RE LA MI (4 Veces)
    
    
    SOL            RE
    Ella es menor, él es normal
      LA                            MI
    y lo que están haciendo es un pecado mortal.
    SOL               RE
    ella se quedó sin boda ni arroz
         LA                       MI
    y al novio lo agarraron entre mucho más que dos.
    
    
                  DO                    SOL
    1.-)Mira lo están golpeando todo el tiempo,
           SI                     DO con puente
        lo vuelven, vuelven a golpear.
            DO     SOL      RE SOL
        nos siguen pegando aba-jo.
    
    
  • holas gente komo estan bueno esta es mi primera transcrpcion
    bueno ahi se las dejo:
    
    intro:
    
    primero empiesa la guitarra sola x4
    y luego entra el bajo
    
    
     G|--------------------------------|
     D|--------------------------------| x4
     A|-------------5------------------|
     E|----0--2/3-------5/4-5/4--------|
    
    verso 1:
    
          ella es menor, el es normal.........
     G|-------------------------------------------|
     D|-------------------------------------------|
     A|-------------5-55---------7-7/5/7/5--------|
     E|-0--2/3-33----------5-55-------------------|
    
          ella se quedo sin boda ni arooz......
     G|------------------------------------------|
     D|------------------------------------------|
     A|------------5-55----------7-77------------|
     E|----3-33-----------5-55-------------------|
    
         miren lo estan golpeando todo el tiempo.........
     G|---------------|---------------|-----------------|-------------|
     D|---2-------1---|---------------|---1-------4-----|--2-2/0------|
     A|-----3---------|---2---
  • Está construida principalmente a través de las notas de los acordes
    (tónica y octava en las estrofas; tónica, tercera y quinta en el estribillo)
    y pequeñas uniones cromáticas entre ellos.
    
    La rítmica tiene cierta complejidad en el riff principal por su polirritmia:
    el riff está en 7/4 mientras que la batería electrónica se mantiene en 4/4.
    Esto genera un desfasaje (el comienzo del riff no coincide con el comienzo del
    compás de la batería) hasta que vuelve a coincidir luego de 4 repeticiones.
    Escuchar el tema para la rítmica.
    
    Genialidad interpretada por el maestro Pedro Aznar
    
    RIFF
     G     D      A        E     (x4)
    -------------------------------||
    ------------------------------||
    -------5-----------------------||
    -3-----------0-5/4/5/4-0---0-2-||
    
    ESTROFA (Ella es menor...)
     G               D               A               E
    -------------------7-------------------------------9----9-7----|
    ---5-------------------------------7---------------------------|
    -----------0-7-6-5--
  • +
    ¡Colabora con nosotros!
    Envíanos tu versión de esta canción
  • Tutorial
    HD
    Nos siguen pegando abajo - Charly Garcia - Como tocar en Guitarra acordes
    5:03
  • Tutorial
    Letra y acordes Nos siguen pegando abajo Charly García Cover Tutorial
    6:08

Letra de Nos siguen pegando abajo
v = se rasguea hacia abajo
^ = se rasguea hacia arriba
Estrofa:
Ella es menor, él es normal
y lo que están haciendo
es un pecado mortal.
Ella se quedó sin boda ni arroz
y al novio lo agarraron
entre muchos más que dos.
Miren lo están golpeando todo el tiempo,
lo vuelven, vuelven a golpear.
Nos siguen pegando abajo.
Tocar Intro x4
Estrofa: (se repiten los acordes anteriores)
Yo estaba en un club, no había casi luz,
la puerta de salida
tenía un farolito azul.
Él se desmayó delante de mí.
No fueron las pastillas,
fueron los hombres de gris.
Estrofa: (lo mismo de arriba)
Ma, ma, ma, estoy yéndome.
Soy como una luz apagándose.
Desde el piso los pude ver
locos de placer, alejándose.
y esa es toda la canción, les recomiendo que la escuchen para
tomar los tiempos!




[Nos siguen pegando abajo chords][Nos siguen pegando abajo cifra]
© LaCuerda.net · aviso legal · privacidad · es · en · pt · contacto