Letra y Acordes de Caifanes: Matenme porque me muero
Conexión · Inscripción
Letras y Acordes
Pantalla Completa
Imprimir
Versión Texto
Añadir Favorito
Otras Versiones

Mostrar Diagramas
Desfile Automático
Manipular Acordes
Formato del Texto


Matenme porque me muero

Caifanes

calidad:
caif0341
AUTOR: Saul Hernandez
ALBUM: Caifanes (1990)

  
   Este es el intro que hacen los teclados, esta en G como los acordes


  e ------------------:---7----------------------------:
  b --8---------------:-----10------8------------------:
  g -----7------------:-----------------7--------------:
  d ---------10----9--:---------------------10---9-----:
  a ------------------:--------------------------------:
  e ------------------:--------------------------------:

                          : esta la repites 4 veces :
                          
  
  y este es el solo:

  e --------7~--3---2~------:--------7~---3-----2/3~--2/3~-------
  b --------------------5~--:--------------------------------5~--
  g --2/4~------------------:--2/4~------------------------------
  d ------------------------:------------------------------------
  a ------------------------:------------------------------------
  e ------------------------:------------------------------------
             *            
                             lo tocas y repites *

  Si lo tocas distorcionado se escucha muy bien, escucha la rola,
 para que te hayes con los tiempos de cada nota.

=================================================
Intro de alexis jayr rodriguez pedraza.
(rodvalen@siu.buap.mx)

G Cuando me muera
Em y me tengan que enterrar,
G quiero que sea
Em con una de tus fotografias,
F Dm G para que no me de miedo estar abajo,
F Dm G para que no se me olvide como es tu cara,
F Dm G para imaginar que estoy contigo,
F Dm G y sentirme un poquito vivo.
G Bm Em Matenme porque me muero,
G Bm Em matenme porque no puedo,
G Bm Em matenme porque me muero,
G Bm Em matenme porque no puedo.
Am C Bm Esta enfermedad es incurable,
Am C Bm Cm esta enfermedad ni con un valium... ­No!
(G - Em) Cuando me muera y me tengan que enterrar, quiero que sea con dulces y no con piedras,
(F - Dm - G) por si alguna vez me buscas, estare eternamente lejos, como para darte solo flores, te guardare mil estrellas. Matenme porque me muero...
Este fichero es trabajo propio de su transcriptor y representa su interpretación personal de la canción. El material contenido en esta página es
para exclusivo uso privado, por lo que se prohibe su reproducción o retransmisión, así como su uso para fines comerciales.

© LaCuerda.net · Aviso Legal · Privacidad