Tablatura para Bajo de Caifanes: Matenme porque me muero
Conexión · Inscripción
Letras y Acordes
Pantalla Completa
Imprimir
Versión Texto
Añadir Favorito
Otras Versiones

Mostrar Diagramas
Desfile Automático
Formato del Texto


Matenme porque me muero(BAJ)

Caifanes

calidad:
caif0347
AUTOR: Saul Hernandez
ALBUM: Caifanes (1990)
Enviado por Diego, basado en adrian
El único tab de bajo que habia de esta rola no estaba correcto,
aqui esta 100% correcto


Intro
G|------------5---4-2------------5---4-2--|
D|----5------------------5----------------|
A|--------5------------------5------------| x2
E|--3---3---3---3------0---0---0---0------|

Verso
G|---------------------------------------------------|
D|------------------2h3-2-0--------------------------|
A|--------------------------3-2-0--------------------|
E|--3~----0~----------------------3~------------0~---|
Cuando me muera...

Pre-coro
G|-------------------------------------||
D|-3--2-3-2----------------------------||
A|----------5--3-5-3------------3h5----||x4
E|-------------------3-5-7--5h7--------||
Para que no me de miedo...
(La cuarta vez termina en SI (E-7)

Coro
G|--------------------|
D|--------------------|
A|--------------------| x4
E|--3~---2~---0~------|
Matenme por que...

Puente     (x2)
G|-----------------------------|----|
D|-----------------------------|----|
A|--0-00-0-3-33-3-2-22-2-2-22--|----|
E|-----------------------------|-1~-|
Esta enfermedad...
(Fa (E-1) se toca después de la segunda vez

se repite el INTRO x1

Verso 2 (Con una variación al final)
G|-----------------10h12-10-9----------------------10h12-11-------------|
D|----------------------------12-10-------------------------12-10----10-|
A|----------------------------------12-10~------------------------12----|
E|--3~----0~-----------------------------------0~-----------------------|
Cuando me muera...

se repite el Pre-Coro igual

se repite el Coro x4

Final
G|--------------------------------------------------------------------|
D|-----9---9-----9--9-------------------9---9-----9--9----------------|
A|--10---10-10--9--9-9--7-7----7-7---10---10-10--9--9-9--797979797979-| x2
E|-----------------------7-7--7---------------------------------------|

Termina en Mi (E|-0~-|)

el simbolo ~ se usa para mantener la nota

Cualquier comentario a gecko.gex@gmail.com
Este fichero es trabajo propio de su transcriptor y representa su interpretación personal de la canción. El material contenido en esta página es
para exclusivo uso privado, por lo que se prohibe su reproducción o retransmisión, así como su uso para fines comerciales.

© LaCuerda.net · Aviso Legal · Privacidad