Tablatura para Guitarra de Caifanes: Matenme porque me muero
Conexión · Inscripción
Letras y Acordes
Pantalla Completa
Imprimir
Versión Texto
Añadir Favorito
Otras Versiones

Mostrar Diagramas
Desfile Automático
Manipular Acordes
Formato del Texto


Matenme porque me muero(TAB)

Caifanes

calidad:
caif0346
AUTOR: Saul Hernandez
ALBUM: Caifanes (1990)
Enviado por Rolando
Es un arreglo del final de la cancion para guitarra,
la recomendacion es tocarlo rapido y con un delay para que le de presencia.

Cualquier duda o comentario les dejo mi correo x_roldan39@hotmail.com

Title: Matenme
Tempo = 160
Steel Guitar

Legend
L - tied note
x - dead note
h - hammer on/pull off
b - bend
s - slide
~ - vibrato
g - ghost note
] - accentuated note
t - trill
M - palm mute
. - staccato
P - popping (bass)
S - slapping (bass)
+ - tapping
W - wide vibrato
[ - fade in
w - whammy bar
= - tremolo picking
v - brush up
^ - brush down
V - pick stroke up
n - pick stroke down


E |-----7-----7--10----7-------|-----7-----7--9-----7-------|
B |--8--------------8-----8----|--7--------------7-----7----|
G |----------------------------|----------------------------|
D |----------------------------|----------------------------|
A |----------------------------|----------------------------|
E |----------------------------|----------------------------|


----------------------------|----------------------------|
--5-----5-----3-----3-------|--2-----2-------------------|
----------------------------|--------------4-----4-------|
----------------------------|----------------------------|
----------------------------|----------------------------|
----------------------------|----------------------------|


-----7-----7--10----7-------|-----7-----7--9-----7-------|
--8--------------8-----8----|--7--------------7-----7----|
----------------------------|----------------------------|
----------------------------|----------------------------|
----------------------------|----------------------------|
----------------------------|----------------------------|


----------------------------|----------------------------|
--5--7--5--7--5--7--5--7----|--5--7--5--7--5--7--5--7----|
----------------------------|----------------------------|
----------------------------|----------------------------|
----------------------------|----------------------------|
----------------------------|----------------------------|


-----7-----7--10----7-------|-----7-----7--9-----7-------|
--8--------------8-----8----|--7--------------7-----7----|
----------------------------|----------------------------|
----------------------------|----------------------------|
----------------------------|----------------------------|
----------------------------|----------------------------|


----------------------------|----------------------------|
--5-----5-----3-----3-------|--2-----2-------------------|
----------------------------|--------------4-----4-------|
----------------------------|----------------------------|
----------------------------|----------------------------|
----------------------------|----------------------------|


-----7-----7--10----7-------|-----7-----7--9-----7-------|
--8--------------8-----8----|--7--------------7-----7----|
----------------------------|----------------------------|
----------------------------|----------------------------|
----------------------------|----------------------------|
----------------------------|----------------------------|


----------------------------|----------------------------|-------||
--5--7--5--7--5--7--5--7----|--5--7--5--7--0L------------|--0----||
----------------------------|--------------0L------------|--0----||
----------------------------|----------------------------|-------||
----------------------------|----------------------------|-------||
----------------------------|--------------0L------------|--0----||
Este fichero es trabajo propio de su transcriptor y representa su interpretación personal de la canción. El material contenido en esta página es
para exclusivo uso privado, por lo que se prohibe su reproducción o retransmisión, así como su uso para fines comerciales.

© LaCuerda.net · Aviso Legal · Privacidad